Oops, an error
Loading. Please wait.

Savior Breath tab

2,566 views 9 this week
1 commentread comment
1 2 3 4 5
x 6
add to favorites
×
Save as Personal and add changes to this tab that will be seen only by you. Learn more ›
×
You can save this tab as Personal to edit and correct it or add notes. All changes will be seen only by you. Learn more »
launch autoscroll
font size
0
reset
how to read this tab
guitar tuner
edit
Autoscroll
slow
fast
+/-
esc
set tempo
stop
Author
Difficulty
intermediate
Tuning: EADGBe

(Strum this power chord very fast and slowly bend.)
e|---------------------------------------------------------------------------|
B|---------------------------------------------------------------------------|
G|------5b-------------------------------------------------------------------|
D|------5b-------------------------------------------------------------------|
A|------3b-------------------------------------------------------------------|
E|---------------------------------------------------------------------------|

[Intro & Verse]
e|---------------------------------------------------------------------------|
B|---------------------------------------------------------------------------|
G|-----------------8-7-------------------8-7-------------------8-7-----------|
D|----7---7---7----8-7----5/7---7---7----8-7----5/7---7---7----8-7-----------|
A|----7---7---7----6-5----5/7---7---7----6-5----5/7---7---7----6-5-----------|
E|----5-0-5-0-5-----------3/5-0-5-0-5-----------3/5-0-5-0-5------------------|

e|---------------------------------------------------------------------------|
B|---------------------------------------------------------------------------|
G|-------------------5-5-5-5-7-7-7-7-----------------------------------------|
D|----5/7---7---7----5-5-5-5-7-7-7-7-----------------------------------------|
A|----5/7---7---7----3-3-3-3-5-5-5-5-----------------------------------------|
E|----3/5-0-5-0-5------------------------------------------------------------|

[Pre-Chorus]
e|------------------3--3-3---------------------------------------------------|
B|------------------2--2-2---------------------------------------------------|
G|----5--5-5--------3--3-3------------------------8-7------------------------|
D|----5--5-5-5--5-5-0--0-0-----------7---7---7----8-7----5/7---7---7-7-7-7-7-|
A|----3--3-3-5--5-5--------5--5-5----7---7---7----6-5----5/7---7---7-7-7-7-7-|
E|-----------3--3-3--------2--2-2----5-0-5-0-5-----------3/5-0-5-0-5-5-5-5-5-|

e|------------------3--3-3---------------------------------------------------|
B|------------------2--2-2---------------------------------------------------|
G|----5--5-5--------3--3-3---------------------------------------------------|
D|----5--5-5-5--5-5-0--0-0---------------------------------------------------|
A|----3--3-3-5--5-5--------5--5-5--------------------------------------------|
E|-----------3--3-3--------2--2-2--------------------------------------------|

[Chorus]
(Guitar 1)
e|---------------------------------------------------------------------------|
B|---------------------------------------------------------------------------|
G|--------5--------5--------5----7-7-7-7-7-----------------------------------|
D|----3-3-3----3-3-5----3-3-5----7-7-7-7-7-----------------------------------|
A|----3-3-3----3-3-3----3-3-3----5-5-5-5-5-----------------------------------|
E|----1-1------1-1------1-1--------------------------------------------------|

e|---------------------------------------------------------------------------|
B|---------------------------------------------------------------------------|
G|--------5--------5--------5------------------------------------------------|
D|----3-3-3----3-3-5----3-3-5----2-2-x-x-x-2-2-x-x-x-2-x-x-2-x-x-2~----------|
A|----3-3-3----3-3-3----3-3-3----2-2-x-x-x-2-2-x-x-x-2-x-x-2-x-x-2~----------|
E|----1-1------1-1------1-1------0-0-x-x-x-0-0-x-x-x-0-x-x-0-x-x-0~----------|

(Guitar 2)
e|------------------------------------------------------------------------------------------|
B|----6----6----5------6----6----8--------6----6----5------7----7----7----7----7------------|
G|----8b10-8b10-7b9----8b10-8b10-10b12----8b10-8b10-7b9----9b11-9b11-9b11-9b11-9b11-7-------|
D|------------------------------------------------------------------------------------------|
A|------------------------------------------------------------------------------------------|
E|------------------------------------------------------------------------------------------|

e|---------------------------------------------------------------------------------------------|
B|----6----6----5------6----6----8--------6----6----5------------------------------------------|
G|----8b10-8b10-7b9----8b10-8b10-10b12----8b10-8b10-7b9----------------------------------------|
D|---------------------------------------------------------2-2-x-x-x-2-2-x-x-x-2-x-x-2-x-x-2~--|
A|---------------------------------------------------------2-2-x-x-x-2-2-x-x-x-2-x-x-2-x-x-2~--|
E|---------------------------------------------------------0-0-x-x-x-0-0-x-x-x-0-x-x-0-x-x-0~--|

(Guitar 1)
e|--------------------------------------------------------------------------------------------|
B|--------------------------------------------------------------------------------------------|
G|---------------9-10----------------9-10----------------9-10----------------7-7-7-7-9-9-9-9--|
D|----9---9---9--9-10-7-8-9---9---9--9-10-7-8-9---9---9--9-10-7-8-9---9---9--7-7-7-7-9-9-9-7--|
A|----9---9---9--7-8--7-8-9---9---9--7-8--7-8-9---9---9--7-8--7-8-9---9---9--5-5-5-5-7-7-7-7--|
E|----7-0-7-0-7-------5-6-7-0-7-0-7-------5-6-7-0-7-0-7-------5-6-7-0-7-0-7-------------------|

e|-------------------------------------------------------------------------------|
B|-------------------------------------------------------------------------------|
G|---------------9-10----------------9-10----------------9-10----------------7~--|
D|----9---9---9--9-10-7-8-9---9---9--9-10-7-8-9---9---9--9-10-7-8-9---9---9--7~--|
A|----9---9---9--7-8--7-8-9---9---9--7-8--7-8-9---9---9--7-8--7-8-9---9---9--5~--|
E|----7-0-7-0-7-------5-6-7-0-7-0-7-------5-6-7-0-7-0-7-------5-6-7-0-7-0-7------|

[Ending]
e|---------------------------------------------------------------------------|
B|---------------------------------------------------------------------------|
G|--------------7-8----------------------------------------------------------|
D|----7---7---7-7-8-5-6-7\---------------------------------------------------|
A|----7---7---7-5-6-5-6-7\---------------------------------------------------|
E|----5-0-5-0-5-----3-4-5\---------------------------------------------------|


************************************

| b  Bend
| /  Slide up
| x  Dead note
| ~  Vibrato
| \  Slide down

************************************

            
            
Suggest correction
Creating personal tab
Creating personal tab
You can edit any tab online and save it as your Personal.

You can edit, replace or remove any tab part or add personal notes – all changes will be seen only by you.

Personal tabs can be accessed anytime from any device, even offline.
Learn more »
comments
print report bad tab
1 comment total.
0 reply
7lexx 56 Nov 26, 2015 10:24 AM

Sweet tab!

guest
You may want to rate the tab now too:
select rating
Wanna post a correction for this tab? Suggest correction