Oops, an error
Loading. Please wait.

See You Tab

version 2
version 2

Whole song

Interactive

28,242 views 33 this week
1 commentread comment
1 2 3 4 5
x 23
add to favorites
×
Save as Personal and add changes to this tab that will be seen only by you. Learn more ›
×
You can save this tab as Personal to edit and correct it or add notes. All changes will be seen only by you. Learn more »
save as personal
new!
launch autoscroll
font size
0
reset
how to read this tab
guitar tuner
backing track
0:00
0:00
Autoscroll
slow
fast
+/-
esc
set tempo
stop
Author
Unregistered
[Intro]
e|----3----|
B|----2----|
G|----2----|
D|----2----|
A|----0----|
E|---------|

[Verse]
e|--1----0----3----1----0----3--|
B|--1----0----2----1----0----2--|
G|--2----1----2----2----1----2--|
D|--3----2----2----3----2----2--|
A|--3----2----0----3----2----0--|
E|--1----0---------1----0-------|

[Chorus]
e|--3----2---3---2---3---2---1-------1---0----3--|
B|--2----3---2---3---2---3---1---2---1---0----2--|
G|--2----2---2---2---2---2---2---2---2---1----2--|
D|--2----0---2---0---2---0---3---2---3---2----2--|
A|--0--------0-------0-------3---0---3---2----0--|
E|---------------------------1-------1---0-------|

[Bridge]
e|--3------3------5------6------3-----1-----0-------3--|
B|--3------3------5------6------3-----1-----0-------2--|
G|--4------4------5------7------4-----2-----1-------2--|
D|--5------5------7------8------5-----3-----2-------2--|
A|--5------5------7------8------5-----3-----2-------0--|
E|--3------3------5------6------3-----1-----0----------|
Suggest correction
comments
print report bad tab
1 comment total.
+1 reply
eemz53 42 May 15, 2008 11:27 AM

the one with chords written is good, i'm not so sure about the top part

guest
Wanna post a correction for this tab? Suggest correction