Oops, an error
Loading. Please wait.

Skin And Bones tab

version 2
version 2

Whole song

Interactive

9,866 views 3 this week
2 commentsread comments
1 2 3 4 5
x 4
add to favorites
×
Save as Personal and add changes to this tab that will be seen only by you. Learn more ›
×
You can save this tab as Personal to edit and correct it or add notes. All changes will be seen only by you. Learn more »
launch autoscroll
font size
0
reset
how to read this tab
guitar tuner
edit
Autoscroll
slow
fast
+/-
esc
set tempo
stop
Author
Difficulty
This is my first tab. My name is Colten Hurley and I'm 14. It's about 86% right. Email 
any suggestions at Scentless__aprentice@hotmail.com

Intro

e--------------|
B---6--6--6----|
G--------------|
D--------------|
A--5--5--5-----|
E--------------|


Verse

e-----------------------|
B-----6--6--6-6--6--6---|
G-----------------------|
D----------5-5----------|
A----5--5-------3--3----|
E-----------------------|
    "Lately, I've been..."


Chorus?

e---------------------------                e-5---|
B---------6--6------6--6----                B--6--|
G-------------------------------------------------|
D-------0--0------0--0----------------------------|
A-------------------------------------------------|
E--3-3---------3-3--------------------------------|             second times theres this in there
  "Skin and bones, skin and bones..."


e-----------------------|
B-----------------------|
G---------6-------------|   (not sure whaat this part is called)
D-----3-5------3-5------|
A---5--------5-----3----|
E-----------------------|
   "I'm just skin and bones..."


end with

E----10/----

That's about it.

            
            
Suggest correction
Creating personal tab
Creating personal tab
You can edit any tab online and save it as your Personal.

You can edit, replace or remove any tab part or add personal notes – all changes will be seen only by you.

Personal tabs can be accessed anytime from any device, even offline.
Learn more »
comments
print report bad tab
2 comments total.
0 reply
Apextreme 54 Dec 05, 2006 04:09 PM

nice try kid but i prefer playing it this way:
verse
e|----------------------------------------------------------------------|
B|-----10------------10------------10-----------10-----------10---------|
G|-----10------------10------------10-----------10-----------10---------|
D|-------------0--------------0-----------0------------0-------------0--|
A|----------------10------10--------------------------------------------|
E|--10-----10-------------------9-----9-----10-----10----10-----10------|

chorus
e|------------------------------|
B|------------------10------10--|
G|-----3-----3------10------10--|
D|-----3-----3------------------|
A|------------------------------|
E|--3-----3-----10------10------|

0 reply
Martinni 10 Oct 13, 2008 12:54 PM

not sure whaat this part is called)
bridge?

guest
You may want to rate the tab now too:
select rating
Wanna post a correction for this tab? Suggest correction