Oops, an error
Loading. Please wait.

Something From Nothing tab

version 7
version 7
106 views 1 this week
no commentswrite comment
1 2 3 4 5
3 more votes to show rating
add to favorites
×
Save as Personal and add changes to this tab that will be seen only by you. Learn more ›
×
You can save this tab as Personal to edit and correct it or add notes. All changes will be seen only by you. Learn more »
launch autoscroll
font size
0
reset
how to read this tab
guitar tuner
backing track
0:00
0:00
edit
Autoscroll
slow
fast
+/-
esc
set tempo
stop
Author
Difficulty
Tuning: eBGDAE

[Intro] (2x)
e|-------------------------------------|
B|-----0---0---0---0---0---0---0---0---|
G|-----0---0---0---0---0---0---0---0---|
D|-------------------------------------|
A|---7---7---7---7---------------------|
E|-------------------0---0---0---0-----|

[Verse]
(Gtr 1)
(2x)
e|-----------------------------------------------------------------------------------------------------|
B|-----0---0---0---0---0---0---0---0---0---0---0---0---0---0---0---0---0---0---0---0---0---0---0---0---|
G|-----0---0---0---0---0---0---0---0---0---0---0---0---0---0---0---0---0---0---0---0---0---0---0---0---|
D|---------------------------------------------------------------------------2---2---------------------|
A|---7---7---7---7---6---6---6---6---5---5---5---5---4---4---4---4---3---3-----------0---0---0---0-----|
E|-----------------------------------------------------------------------------------------------------|

(Gtr 2 You can use a slide for the optimal sound)
e|--------------------------------------------------------------------|
B|--------------------------------------------------------------------|
G|-----9~---/-12~-\-8~---/-12~-\-7~--/-12~-\-6~---5~--/--9~--/--12~---|
D|--------------------------------------------------------------------|
A|--------------------------------------------------------------------|
E|--------------------------------------------------------------------|

[Bridge]
(Gtr 1)
(2x)
e|--------------------------|------------------|
B|--------------------------|------------------|
G|--------------------------|------------------|
D|--------------------------|--------2~--------|
A|------------/5--4~---0~---|---3~--------0~---|
E|---0--2--3----------------|------------------|

(Gtr 2)
(2x)
e|-------------------------|------------------------|
B|-------------------------|------------------------|
G|---4~--6~--7~--12~--9~---|---9~--12~--6~---6~-/---|
D|-------------------------|------------------------|
A|-------------------------|------------------------|
E|-------------------------|------------------------|

[Verse]
(Gtr 1)
e|-----------------------------------------------------------------------------------------------------|
B|-----0---0---0---0---0---0---0---0---0---0---0---0---0---0---0---0---0---0---0---0---0---0---0---0---|
G|-----0---0---0---0---0---0---0---0---0---0---0---0---0---0---0---0---0---0---0---0---0---0---0---0---|
D|---------------------------------------------------------------------------2---2---------------------|
A|---7---7---7---7---6---6---6---6---5---5---5---5---4---4---4---4---3---3-----------0---0---0---0-----|
E|-----------------------------------------------------------------------------------------------------|

(Gtr 2 You can use a slide for the optimal sound)
e|--------------------------------------------------------------------|
B|--------------------------------------------------------------------|
G|-----9~---/-12~-\-8~---/-12~-\-7~--/-12~-\-6~---5~--/--9~--/--12~---|
D|--------------------------------------------------------------------|
A|--------------------------------------------------------------------|
E|--------------------------------------------------------------------|

[Bridge]
(Gtr 1)
(2x)
e|--------------------------|------------------|
B|--------------------------|------------------|
G|--------------------------|------------------|
D|--------------------------|--------2~--------|
A|------------/5--4~---0~---|---3~--------0~---|
E|---0--2--3----------------|------------------|

(Gtr 2)
(2x)
e|-------------------------|-----------------|
B|-------------------------|-----------------|
G|---4~--6~--7~--12~--9~---|---9~--12~--6~---|
D|-------------------------|-----------------|
A|-------------------------|-----------------|
E|-------------------------|-----------------|

[Pre-Verse]
(Gtr 1)
(4x)
e|---------------------------|
B|---------------------------|
G|---------------------------|
D|---0h2-x-x-0h2-x-x-2-4-5---|
A|---0h2-x-x-0h2-x-x-2-4-5---|
E|---------------------------|

(Gtr 2)
(4x)
e|-----------------------------|
B|-----------------------------|
G|---7h9-x-x-7h9-x-x-9-11-12---|
D|---7h9-x-x-7h9-x-x-9-11-12---|
A|---7---x-x-7---x-x-7--9-10---|
E|-----------------------------|

{Verse}
(Gtr 1)
(4x)
e|---------------------------|
B|---------------------------|
G|---------------------------|
D|---0h2-x-x-0h2-x-x-2-4-5---|
A|---0h2-x-x-0h2-x-x-2-4-5---|
E|---------------------------|

(Gtr 2)
(4x)
e|-----------------------------|
B|-----------------------------|
G|---7h9-x-x-7h9-x-x-9-11-12---|
D|---7h9-x-x-7h9-x-x-9-11-12---|
A|---7---x-x-7---x-x-7--9-10---|
E|-----------------------------|

[Bridge]
(Gtr 1)
(2x)
e|---------------|---------------------------|
B|---------------|---------------------------|
G|---5---9---2---|---5---9---2-2-2-2-2-2-2---|
D|---5---9---2---|---5---9---2-2-2-2-2-2-2---|
A|---3---7---0---|---3---7---0-0-0-0-0-0-0---|
E|---------------|---------------------------|

e|-----------------------------------------------------------------------------------------------------|
B|---------------------------------------------------------------------------------2-3-3-2-2-2-2-2-2---|
G|---------------------------------------------------------------------------------2-2-2-2-2-2-2-2-2---|
D|---------------5---5-7/9-7\5----5/7-------------5---5-7/9-7\5----5/7-------------2-2-2-2-2-2-2-2-2---|
A|---\-3---3-5/7---------------7--------3---3-5/7---------------7--------\-3---7---0-0-0-0-0-0-0-0-0---|
E|-----------------------------------------------------------------------------------------------------|

[Pre-Verse]
(Gtr 1)
(4x)
e|---------------------------|
B|---------------------------|
G|---------------------------|
D|---0h2-x-x-0h2-x-x-2-4-5---|
A|---0h2-x-x-0h2-x-x-2-4-5---|
E|---------------------------|

(Gtr 2)
(4x)
e|-----------------------------|
B|-----------------------------|
G|---7h9-x-x-7h9-x-x-9-11-12---|
D|---7h9-x-x-7h9-x-x-9-11-12---|
A|---7---x-x-7---x-x-7--9-10---|
E|-----------------------------|

(Gtr 3)
e|------------------------------------------------------------------------|
B|------------------------------------------------------------------------|
G|-------15-15-15-15-------------15-15-15-15--------------------------7---|
D|--------x--x--x--x--------------x--x--x--x------------------------------|
A|---1-/-13-13-13-13-------------13-13-13-13-------------7-7-9-7-10-7-----|
E|------------------------------------------------------------------------|

(Gtr 4)
e|------------------------------------------------------------------------|
B|------------------------------------------------------------------------|
G|-------------------12-12-12-12-------------12-12-12-12------------------|
D|--------------------x--x--x--x--------------x--x--x--x------------------|
A|-------------------10-10-10-10-------------10-10-10-10------------------|
E|------------------------------------------------------------------------|

[Verse]
(Gtr 1)
(16x)
e|---------------------------|
B|---------------------------|
G|---------------------------|
D|---0h2-x-x-0h2-x-x-2-4-5---|
A|---0h2-x-x-0h2-x-x-2-4-5---|
E|---------------------------|

(Gtr 2)
(16x)
e|-----------------------------|
B|-----------------------------|
G|---7h9-x-x-7h9-x-x-9-11-12---|
D|---7h9-x-x-7h9-x-x-9-11-12---|
A|---7---x-x-7---x-x-7--9-10---|
E|-----------------------------|

(Gtr 3)
(2x)
e|---0---0---0---0---|
B|---0---0---0---0---|
G|---0---0---0---0---|
D|---2---2---2---2---|
A|---2---2---2---2---|
E|---0---0---0---0---|

[Bridge]
(Gtr 1)
(3x)
e|-----------------------------|-------------------------------|
B|-----------------------------|-------------------------------|
G|-------8-7---6-5---3-2-------|-------8-7---6-5---3-2---------|
D|---2---8-7---6-5---3-2---3---|---2---8-7---6-5---3-2---3-3---|
A|---2---6-5---4-3---1-0---3---|---2---6-5---4-3---1-0---3-3---|
E|---0---------------------1---|---0---------------------1-1---|

(Gtr 2)
           (3x)
e|-------|-------------------------------------------------------------------------------------------------|
B|-------|-------------------------------------------------------------------------------------------------|
D|-------|-------------------------------------------------------------------------------------------------|
G|-------|----------5---5-5-7p5-----------------7---7-7-9p7-----------------5---5-5-7p5--------------------|
A|-------|------5/7-------------7---5---5-5-7/9-------------9---3---3-3-5/7-------------7--------------7---|
E|---\---|---0------------------------------------------------------------------------------5--5-5-5/7-----|

[Outro]
e|--------------------------------------------------------------------|
B|--------------------------------------------------------------------|
G|---12b-x-x-12b-x-x-12b-x-x-(2)-/-14b-x-x-14b-x-x-14b-x-x-14/16\14---|
D|----x--x-x--x--x-x--x--x-x-(x)-/--x--x-x--x--x-x--x--x-x--x--x--x---|
A|---10b-x-x-10b-x-x-10b-x-x-(0)-/-12b-x-x-12b-x-x-12b-x-x-12/14\12---|
E|--------------------------------------------------------------------|

e|------------------------------------------------------------|
B|------------------------------------------------------------|
G|---12b-x-x-12b-x-x-12b-x-x-10b-x-x-9b-x-x-9b-x-x-9b-x-x-----|
D|----x--x-x--x--x-x--x--x-x--x--x-x-x--x-x-x--x-x-x--x-x-3---|
A|---10b-x-x-10b-x-x-10b-x-x--8b-x-x-7b-x-x-7b-x-x-7b-x-x-3---|
E|--------------------------------------------------------1---|

e|--------------------------------------------------------------------|
B|--------------------------------------------------------------------|
G|---12b-x-x-12b-x-x-12b-x-x-(2)-/-14b-x-x-14b-x-x-14b-x-x-14/16\14---|
D|----x--x-x--x--x-x--x--x-x-(x)-/--x--x-x--x--x-x--x--x-x--x--x--x---|
A|---10b-x-x-10b-x-x-10b-x-x-(0)-/-12b-x-x-12b-x-x-12b-x-x-12/14\12---|
E|--------------------------------------------------------------------|

e|---------------------------------------------------------------------|
B|---------------------------------------------------------------------|
G|---12b-x-x-12b-x-x-12b-x-x-10b-x-x-9-9-9-9-9-9-9-9-9-9-9-9-9-9-9-9---|
D|----x--x-x--x--x-x--x--x-x--x--x-x-x-x-x-x-x-x-x-x-x-x-x-x-x-x-x-x---|
A|---10b-x-x-10b-x-x-10b-x-x--8b-x-x-7-7-7-7-7-7-7-7-7-7-7-7-7-7-7-7---|
E|---------------------------------------------------------------------|

[Outro]
(Gtr 1)
   (8x)                                (8x)
e|-----------------------------|-----------------------------|-----------------------|
B|-----------------------------|-----------------------------|-----------------------|
G|---7h9-x-x-7h9-x-x-9-11-12---|---9-9-9-9-9-9-9-9-9-11-12---|---------------7---2---|
D|---7h9-x-x-7h9-x-x-9-11-12---|---9-9-9-9-9-9-9-9-9-11-12---|---2---4---5---7---2---|
A|---7---x-x-7---x-x-7--9-10---|---7-7-7-7-7-7-7-7-7--9-10---|---2---4---5---5---0---|
E|-----------------------------|-----------------------------|---0---2---3-----------|

(Gtr 2)
Some Shifty shredding, then
   (4x)                                            (4x)
e|---------------------------------------------|-----------------------------|
B|---------------------------------------------|-----------------------------|
G|---9-9-9-9-9-9-9-9-9b-9b-9b-9b-9b-9b-9b-9b---|---12-12-12-12-12-12-12-12---|
D|---x-x-x-x-x-x-x-x-x--x--x--x--x--x--x--x----|----x--x--x--x--x--x--x--x---|
A|---7-7-7-7-7-7-7-7-7b-7b-7b-7b-7b-7b-7b-7b---|---10-10-10-10-10-10-10-10---|
E|---------------------------------------------|-----------------------------|

   (2x)
e|------------------------------|-----------------------|
B|---10-/-12-12-12---12-14-15---|-----------------------|
G|----x----x--x--x----x--x--x---|---------------7---2---|
D|----7-/--9--9--9----9-11-12---|---2---4---5---7---2---|
A|------------------------------|---2---4---5---5---0---|
E|------------------------------|---0---2---3-----------|


************************************

| /    Slide up
| \    Slide down
| ~    Vibrato
| x    Dead note
| h    Hammer-on
| p    Pull-off
| (n)  Ghost note
| b    Bend

************************************

            
            
Suggest correction
Creating personal tab
Creating personal tab
You can edit any tab online and save it as your Personal.

You can edit, replace or remove any tab part or add personal notes – all changes will be seen only by you.

Personal tabs can be accessed anytime from any device, even offline.
Learn more »
Give kudos to tab author, rate the tab!
1 2 3 4 5
comments
print report bad tab
guest
You may want to rate the tab now too:
select rating
Wanna post a correction for this tab? Suggest correction