Oops, an error
Loading. Please wait.
We have Chord Pro version of Stranger Things Have Happened.
It's the closest thing you can get to the original song and it has interactive parts. Check out the tab »
×
23,571 views 15 this week
6 commentsread comments
1 2 3 4 5
x 14
add to favorites
×
Save as Personal and add changes to this tab that will be seen only by you. Learn more ›
×
You can save this tab as Personal to edit and correct it or add notes. All changes will be seen only by you. Learn more »
launch autoscroll
font size
0
reset
how to read this tab
guitar tuner
edit
Autoscroll
slow
fast
+/-
esc
set tempo
stop
Author
Difficulty
-------------------------------------------------------------------------------
                             Stranger Things have happened - Foo fighters
-------------------------------------------------------------------------------
Tabbed by: Longy
Email:

Tuning: Standard
 Im not real good at this, but this is a mad song, so I had to do sumthing for it..LOL.
I think most of it is wrong.LOL..but it sounds okay, but I wouldn’t trust the chorus 
also the '5/7' its really not a slide, its more of a touch of the 7 after hitting the 5. 
guitar jargon is real good, whats that called?)
Please leave a comment and tell me how it is ;)

Intro
e|---------------------------------------------------------------------------|
B|---------------------------------------------------------------------------|
G|---------------------------------------------------------------------------|
D|---------------------------------------------------------------------------|
A|------5---5-7-------0---0-2-----5-5-7-5-5-5-7-----5------------------------|
E|--7-7---7-----5-2-2---2-----1-0---------------5/7--------------------------|


Chorus
e|--2---x---3---x---5---0----------------------------------------------------|
B|--3---2---3---x---7---2----------------------------------------------------|
G|--4---2---4---1---7---2---1---1---1----------------------------------------|
D|--4---2---5---2---7---2---2---2---2----------------------------------------|
A|--2---x---5---2---5---x---2---0---2----------------------------------------|
E|--2---x---3---0---5---x---0---0---0----------------------------------------|

Post chorus
e|------5-----5\7-----5-----4-----0--------5-----5\7-----5-----4-------------|
B|----3-----3-------3---3-----3----------3-----3-------3---3-----3-----------|
G|--4-----4-------4-------4-----4------4-----4-------4-------4-----4---------|
D|---------------------------------------------------------------------------|
A|---------------------------------------------------------------------------|
E|---------------------------------------------------------------------------|

e|--4\5/4-0-5-7-7------------------------------------------------------------|
B|---------------------------------------------------------------------------|

hey sorry, im not good enough to tab the next but..LOL, hopefully sum1 else can do it 
thanks for reading :)
Suggest correction
Creating personal tab
Creating personal tab
You can edit any tab online and save it as your Personal.

You can edit, replace or remove any tab part or add personal notes – all changes will be seen only by you.

Personal tabs can be accessed anytime from any device, even offline.
Learn more »
comments
print report bad tab
6 comments total. Showing first comments.
0 reply
Epidude 10 Sep 25, 2007 09:41 AM

The touch to the 7 after hitting the five is called a hammer on

-2 reply
AndreasB 78 Sep 26, 2007 09:00 AM

wrong

0 reply
AndreasB 78 Sep 26, 2007 09:00 AM

look at my version

guest
You may want to rate the tab now too:
select rating
Wanna post a correction for this tab? Suggest correction