Oops, an error
Loading. Please wait.

Stranger Things Have Happened Tab

version 2
1,359 views 3 this week
no commentswrite comment
1 2 3 4 5
please rate
add to favorites
launch autoscroll
font size
0
reset
how to read this tab
guitar tuner
Tab Pro tools
  • play this tab
  • loop segment
  • change instrument
  • show fretboard
  • metronome
×
Best way to learn
"Stranger Things Have Happened"
Autoscroll
slow
fast
+/-
esc
set tempo
stop
Contributor
Difficulty
intermediate
-------------------------------------------------------------------------------
                             Stranger Things Have Happened - Foo Fighters
-------------------------------------------------------------------------------

Tabbed by: Challenger440

Tuning: Standard (EADGBe)

e|------------------------------------9--9---12--12--9---|
B|--12--12--12--12--12--12-----8/10--10-10---10--10--10--|
G|--11--11--11--14--14--11--9--9/11--11-11---11--11--11--|
D|-------------------------------------------------------|
A|-------------------------------------------------------|
E|-------------------------------------------------------|

e|--7---7--7--7--7-------7---7--7--|
B|--9---9--9--10-10------7---9--9--|
G|--7---7--7--7--7---7---7---7--7--|
D|---------------------------------| 2 beats rest
A|---------------------------------|
E|---------------------------------|



e|--10--10--10--12--12--10-----12---12--12--14--14--12--|
B|--10--10--10--10--10--10-----12---12--12--12--12--12--|
G|--11--11--11--11--11--11-----11---11--11--11--11--11--|
D|------------------------------------------------------|
A|------------------------------------------------------|
E|------------------------------------------------------|

e|--12---12--12--14--14--12---10---12--10--12--|
B|--12---12--12--12--12--12---12---12--12--12--|
G|--13---13--13--13--13--13---13---13--13--13--| 2 beats rest
D|---------------------------------------------|
A|---------------------------------------------|
E|---------------------------------------------|



e|------------------------------------------7----------------------------------------------|
B|--7/10--10--10--10--10-----10-------------7----------------------------------------------|
G|--8/11--11--11--11--11--9--7---9~---7--9----9-7---------7--------------------------------| 
D|------------------------------------------------9p7-----7--9-9--7-9-7--------------------|
A|-----------------------------------------------------9-----------------9--7-------7------|
E|------------------------------------------------------------------------------10---------|
2 beats rest



e|--10p7------7p5-----------------------------------------------------------|
B|-------10p7-----7p5--7p5--------------------------------------------------|
G|-------------------------7p4--9p7---7-9p7---------------------------------|
D|----------------------------------9-------9-7-9p7---7-9p7-----------------|
A|--------------------------------------------------9--------9-7-9p7--------|
E|-------------------------------------------------------------------10-7~~-|

e|------------------------------------|
B|------------------------------------|
G|------------------------------------|
D|----------------7s9-9-9-9-9-9-9-9---|
A|------7-7h9-7-9---------------------|
E|--10--------------------------------|

Hit that last 9 (on the D) like 9 times total (excluding the slide),
hitting more and more of the other strings (which are muted).
comments
We did not receive enough feedback on this tab! Please rate:
print report bad tab
1 2 3 4 5
I want to post or [tab]
guest
You may want to rate the tab now too:
select rating
Please do not post tabs as comments. Select "correction" instead!