Oops, an error
Loading. Please wait.
We have Chord Pro version of Stranger Things Have Happened.
It's the closest thing you can get to the original song and it has interactive parts. Check out the tab »
×
58,692 views 87 this week
5 commentsread comments
1 2 3 4 5
x 18
add to favorites
×
Save as Personal and add changes to this tab that will be seen only by you. Learn more ›
×
You can save this tab as Personal to edit and correct it or add notes. All changes will be seen only by you. Learn more »
launch autoscroll
font size
0
reset
how to read this tab
guitar tuner
edit
Autoscroll
slow
fast
+/-
esc
set tempo
stop
Author
Song:Stranger Things Have Happened
Artist:Foo Fighters
Album:Echoes, Silence, Patience & Grace

Tabbed by ben3296(bptrules@hotmail.com)

Guitars 1 and 2 are both acoustic and standard tuned (eBGDAE) and let ring throughout the song
4/4
Quite slow-about 98bpm


**Updated 25/1/2011 - just one simple change in bar two of every verse where the 
fretted note changes string**


[Intro]
guitar 1
e-|----------------|----------------|----------------|-----------------|
B-|----------------|----------------|----------------|-----------------|
G-|----2---2-2-----|----------------|----------------|-----------------|play
D-|----0---0-2-----|----0---0-0-----|----0---0-2-----|0---0---0-2----0-|2 times
A-|2-2---2-----0---|----0---0-2-----|----2---2-2-----|2---2---2-2-0h2--|
E-|--------------2-|--2---2-----1-0-|--0---0-----0-0-|--0---0----------|


[Verse]
guitar 1
e-|----------------|----------------|----------------|-----------------|
B-|----------------|----------------|----------------|-----------------|
G-|----2---2-2-----|----------------|----------------|-----------------|play
D-|----0---0-2-----|----0---0-0-----|----0---0-2-----|0---0---0-2----0-|6 times
A-|2-2---2-----0---|----0---0-2-----|----2---2-2-----|2---2---2-2-0h2--|
E-|--------------2-|--2---2-----1-0-|--0---0-----0-0-|--0---0----------|

[Chorus]
guitars 1 & 2
e-|----0---0-0---0-|0-0-0-0-0-0-0---|0-0-0-0-0-0---0-|0-0-0-0-0-0-0---|
B-|----0---0-0---0-|0-0-0-0-0-0-0---|0-0-0-0-3-3---0-|0-0-0-0-0-0-0---|
G-|4-4-4-4-4-4-4-2-|2-2-2-2-2-2-2-xx|4-4-4-4-4-4-x-1-|1-1-1-1-1-1-1-xx|
D-|4-4-4-4-4-4-4-4-|4-4-4-4-4-4-4-xx|5-5-5-5-5-5-x-2-|2-2-2-2-2-2-2-xx|
A-|2-2-2-2-2-2-0-4-|4-4-4-4-4-4-4-xx|5-5-5-5-5-5-x-2-|2-2-2-2-2-2-2-xx|
E-|----------------|----------------|--------------0-|0-0-0-0-0-0-0-xx|
                                                                        repeat all
e-|2-2-2-2-2-2-x-0-|--0-0-0-0-0-0-0-|0-0-0-0-0-0-0-0-|0-0-0-0-0-0-0---| 8 measures
B-|3-3-3-3-3-3-x-0-|--0-0-0-0-0-0-0-|0-0-0-0-0-0-0-0-|0-0-0-0-0-0-0---|
G-|2-2-2-2-2-2-x-2-|--2-2-2-2-2-2-1-|1-1-1-1-1-2-2-1-|1-1-1-1-1-1-1-xx|
D-|0-0-0-0-0-0-x-4-|--4-4-4-4-4-3-2-|2-2-2-2-2-2-2-2-|2-2-2-2-2-2-2-xx|
A-|--------------4-|--4-4-4-4-4-3-2-|2-2-2-2-2-2-2-2-|2-2-2-2-2-2-2-xx|
E-|----------------|--------------0-|0-0-0-0-0-0-0-0-|0-0-0-0-0-0-0-xx|

[Interlude]
guitar 1
e-|----------------|----------------|----------------|-----------------|
B-|----------------|----------------|----------------|-----------------|
G-|----2---2-2-----|----------------|----------------|-----------------|
D-|----0---0-2-----|----0---0-0-----|----0---0-2-----|0---0---0-2----0-|
A-|2-2---2-----0---|----0---0-2-----|----2---2-2-----|2---2---2-2-0h2--|
E-|--------------2-|--2---2-----1-0-|--0---0-----0-0-|--0---0----------|
                   |                |                |                 |
guitar 2           |                |                |                 |
e-|----------------|----------------|----------------|------0----------|
B-|------10--------|------10--12----|------10------9-|-----------------|
G-|----7-----------|----7-----------|----7-----7-----|--7--------------|
D-|--9-------------|--9-------------|--9---------9---|----9------------|
A-|----------------|----------------|----------------|-----------------|
E-|----------------|----------------|----------------|-----------------|

guitar 1
e-|----------------|----------------|----------------|----------------------|
B-|----------------|----------------|----------------|----------------------|
G-|----2---2-2-----|----------------|----------------|----------------------|
D-|----0---0-2-----|----0---0-0-----|----0---0-2-----|0---0------0-2-----0--|
A-|2-2---2-----0---|----0---0-2-----|----2---2-2-----|2---2------2---2-0h2--|
E-|--------------2-|--2---2-----1-0-|--0---0-----0-0-|--0---0---------------|
                   |                |                |                      |
guitar 2           |                |                |                      |
e-|----------------|----------------|----------------|-----------------7----|
B-|------10--------|------10--12----|------10------9-|------9b10r9p7-10-----|
G-|----7-----------|----7-----------|----7-----7-----|--7-------------------|
D-|--9-------------|--9-------------|--9---------9---|----9-----------------|
A-|----------------|----------------|----------------|----------------------|
E-|----------------|----------------|----------------|----------------------|

[Verse]
guitar 1
e-|----------------|----------------|----------------|-----------------|
B-|----------------|----------------|----------------|-----------------|
G-|----2---2-2-----|----------------|----------------|-----------------|play
D-|----0---0-2-----|----0---0-0-----|----0---0-2-----|0---0---0-2----0-|2 times
A-|2-2---2-----0---|----0---0-2-----|----2---2-2-----|2---2---2-2-0h2--|
E-|--------------2-|--2---2-----1-0-|--0---0-----0-0-|--0---0----------|

guitar 1
e-|----------------|----------------|----------------|-----------------|
B-|----------------|----------------|----------------|-----------------|
G-|----2---2-2-----|----------------|----------------|-----------------|
D-|----0---0-2-----|----0---0-0-----|----0---0-2-----|0---0---0-2----0-|
A-|2-2---2-----0---|----0---0-2-----|----2---2-2-----|2---2---2-2-0h2--|
E-|--------------2-|--2---2-----1-0-|--0---0-----0-0-|--0---0----------|
                   |                |                |                 |
guitar 2           |                |                |                 |
e-|----------------|----------------|----------------|------0----------|
B-|------10--------|------10--12----|------10------9-|-----------------|
G-|----7-----------|----7-----------|----7-----7-----|--7--------------|
D-|--9-------------|--9-------------|--9---------9---|----9------------|
A-|----------------|----------------|----------------|-----------------|
E-|----------------|----------------|----------------|-----------------|

guitar 1
e-|----------------|----------------|----------------|----------------------|
B-|----------------|----------------|----------------|----------------------|
G-|----2---2-2-----|----------------|----------------|----------------------|
D-|----0---0-2-----|----0---0-0-----|----0---0-2-----|0---0------0-2-----0--|
A-|2-2---2-----0---|----0---0-2-----|----2---2-2-----|2---2------2---2-0h2--|
E-|--------------2-|--2---2-----1-0-|--0---0-----0-0-|--0---0---------------|
                   |                |                |                      |
guitar 2           |                |                |                      |
e-|----------------|----------------|----------------|----------------------|
B-|------10--------|------10--12----|------10------9-|------9b10r9p7--------|
G-|----7-----------|----7-----------|----7-----7-----|--7------------9-7--0-|
D-|--9-------------|--9-------------|--9---------9---|----9---------------0-|
A-|----------------|----------------|----------------|----------------------|
E-|----------------|----------------|----------------|----------------------|

[Chorus]
guitars 1 & 2
e-|----0---0-0---0-|0-0-0-0-0-0-0---|0-0-0-0-0-0---0-|0-0-0-0-0-0-0---|
B-|----0---0-0---0-|0-0-0-0-0-0-0---|0-0-0-0-3-3---0-|0-0-0-0-0-0-0---|
G-|4-4-4-4-4-4-4-2-|2-2-2-2-2-2-2-xx|4-4-4-4-4-4-x-1-|1-1-1-1-1-1-1-xx|
D-|4-4-4-4-4-4-4-4-|4-4-4-4-4-4-4-xx|5-5-5-5-5-5-x-2-|2-2-2-2-2-2-2-xx|
A-|2-2-2-2-2-2-0-4-|4-4-4-4-4-4-4-xx|5-5-5-5-5-5-x-2-|2-2-2-2-2-2-2-xx|
E-|----------------|----------------|--------------0-|0-0-0-0-0-0-0-xx|
                                                                        repeat
e-|2-2-2-2-2-2-x-0-|--0-0-0-0-0-0-0-|0-0-0-0-0-0-0-0-|0-0-0-0-0-0-0---| 8 measures
B-|3-3-3-3-3-3-x-0-|--0-0-0-0-0-0-0-|0-0-0-0-0-0-0-0-|0-0-0-0-0-0-0---|
G-|2-2-2-2-2-2-x-2-|--2-2-2-2-2-2-1-|1-1-1-1-1-2-2-1-|1-1-1-1-1-1-1-xx|
D-|0-0-0-0-0-0-x-4-|--4-4-4-4-4-3-2-|2-2-2-2-2-2-2-2-|2-2-2-2-2-2-2-xx|
A-|--------------4-|--4-4-4-4-4-3-2-|2-2-2-2-2-2-2-2-|2-2-2-2-2-2-2-xx|
E-|----------------|--------------0-|0-0-0-0-0-0-0-0-|0-0-0-0-0-0-0-xx|

[Solo]
guitar 1
e-|----------------|----------------|----------------|----------------|
B-|----------------|----------------|----------------|----------------|
G-|----2---2-2-----|----------------|----------------|----------------|play
D-|----0---0-2-----|----0---0-0-----|----0---0-2-----|0---0-----------|3 times
A-|2-2---2-----0---|----0---0-2-----|----2---2-2-----|2---2-----------|
E-|--------------2-|--2---2-----1-0-|--0---0-----0-0-|--0-------------|

then 4th time play
e-|----------------|----------------|----------------|----------------|
B-|----------------|----------------|----------------|----------------|
G-|----2---2-2-----|----------------|----------------|--------------0-|
D-|----0---0-2-----|----0---0-0-----|----0---0-2-----|0---0-2---2-0-0-|
A-|2-2---2-----0---|----0---0-2-----|----2---2-2-----|2---2-2---2-0-0-|
E-|--------------2-|--2---2-----1-0-|--0---0-----0-0-|--0-----0---0---|

guitar 2, 1st time
e-|7-7-7-7--7--7------|---9--9--12-12-9-7---|--7-7-7--7--7-0-7-|----7-----------|
B-|7-7-7-10-10-7-7-10-|---10-10-10-10-10--9-|9-9-9-10-10-9-0-7-|--9-9-----------|
G-|--------------9-11-|11-11-11-11-11-11--9-|9-9-9-9--9--9---9-|--9-9-----------|
D-|-------------------|---------------------|------------------|----------------|
A-|-------------------|---------------------|------------------|----------------|
E-|-------------------|---------------------|------------------|----------------|

guitar 2, 2nd time
e-|10-10-10-12-12-10---12-|---12-9--14-14-12----12-|12-12-14-14-14-12----12-|-----12----------|
B-|12-12-12-12-12-12-0-10-|10-10-10-10-10-10-12-12-|12-12-12-12-12-12-15-12-|--15-12----------|
G-|11-11-11-11-11-11-0-11-|11-11-11-11-11-11----13-|13-13-13-13-13-13-13-13-|-----13----------|
D-|-----------------------|------------------------|------------------------|-----------------|
A-|-----------------------|------------------------|------------------------|-----------------|
E-|-----------------------|------------------------|------------------------|-----------------|

guitar 2, 3rd time
e-|---------------------|------7----------|----------------|----------------|
B-|10-10-10-10-10-9-7---|------7---7------|----------------|----------------|
G-|11-11-11-11-11-9-7-9-|--7-9---9-7------|7---7-----7-----|----------------|
D-|---------------------|------------9p7--|7-9-9-7-9-7-----|----------------|
A-|---------------------|---------------9-|------------9-7-|--5-7-----------|
E-|---------------------|-----------------|----------------|----------------|

guitar 2, 4th time
e-|10p7----7-----------------|------------------------|----------------|----------------|
B-|----10p7-10p7-7-----------|------------------------|----------------|--------------0-|
G-|-------------9-9p7-9p7----|------------------------|----------------|--------------0-|
D-|------------------9---9p7-|9-9p7-7-----------------|----4-6-7-6-4-9-|--9-9-9-9-9-9-0-|
A-|--------------------------|-----9-9-7p5h7-7b8r7p5--|7---------------|----------------|
E-|--------------------------|----------------------7-|----------------|----------------|

[Chorus]
guitars 1 & 2
e-|----0---0-0---0-|0-0-0-0-0-0-0---|0-0-0-0-0-0-----|----------------|
B-|----0---0-0---0-|0-0-0-0-0-0-0---|0-0-0-0-3-3-----|----------------|
G-|4-4-4-4-4-4-4-2-|2-2-2-2-2-2-2-xx|4-4-4-4-4-4-x-4-|4-4-4-4-4-4-----|
D-|4-4-4-4-4-4-4-4-|4-4-4-4-4-4-4-xx|5-5-5-5-5-5-x-2-|2-2-2-2-2-2-2-xx|
A-|2-2-2-2-2-2-0-4-|4-4-4-4-4-4-4-xx|5-5-5-5-5-5-x-2-|2-2-2-2-2-2-2-xx|
E-|----------------|----------------|--------------4-|4-4-4-4-4-0-0-xx|

e-|----0---0-0---0-|0-0-0-0-0-0-0---|0-0-0-0-0-0---0-|0-0-0-0-0-0-0---|
B-|----0---0-0---0-|0-0-0-0-0-0-0---|0-0-0-0-3-3---0-|0-0-0-0-0-0-0---|
G-|4-4-4-4-4-4-4-2-|2-2-2-2-2-2-2-xx|4-4-4-4-4-4-x-1-|1-1-1-1-1-1-1-xx|
D-|4-4-4-4-4-4-4-4-|4-4-4-4-4-4-4-xx|5-5-5-5-5-5-x-2-|2-2-2-2-2-2-2-xx|
A-|2-2-2-2-2-2-0-4-|4-4-4-4-4-4-4-xx|5-5-5-5-5-5-x-2-|2-2-2-2-2-2-2-xx|
E-|----------------|----------------|--------------0-|0-0-0-0-0-0-0-xx|
                                                                        repeat all
e-|2-2-2-2-2-2-x-0-|--0-0-0-0-0-0-0-|0-0-0-0-0-0-0-0-|0-0-0-0-0-0-0---| 8 measures
B-|3-3-3-3-3-3-x-0-|--0-0-0-0-0-0-0-|0-0-0-0-0-0-0-0-|0-0-0-0-0-0-0---|
G-|2-2-2-2-2-2-x-2-|--2-2-2-2-2-2-1-|1-1-1-1-1-2-2-1-|1-1-1-1-1-1-1-xx|
D-|0-0-0-0-0-0-x-4-|--4-4-4-4-4-3-2-|2-2-2-2-2-2-2-2-|2-2-2-2-2-2-2-xx|
A-|--------------4-|--4-4-4-4-4-3-2-|2-2-2-2-2-2-2-2-|2-2-2-2-2-2-2-xx|
E-|----------------|--------------0-|0-0-0-0-0-0-0-0-|0-0-0-0-0-0-0-xx|

[Outro]
guitar 1
e-|----------------|----------------|----------------|----------------------|
B-|----------------|----------------|----------------|----------------------|
G-|----2---2-2-----|----------------|----------------|----------------------|
D-|----0---0-2-----|----0---0-0-----|----0---0-2-----|0---0------0-2-----0--|
A-|2-2---2-----0---|----0---0-2-----|----2---2-2-----|2---2------2---2-0h2--|
E-|--------------2-|--2---2-----1-0-|--0---0-----0-0-|--0---0---------------|
                   |                |                |                      |
guitar 2           |                |                |                      |
e-|----------------|----------------|----------------|-----------------7----|
B-|------10--------|------10--12----|------10------9-|------9b10r9p7-10-----|
G-|----7-----------|----7-----------|----7-----7-----|--7-------------------|
D-|--9-------------|--9-------------|--9---------9---|----9-----------------|
A-|----------------|----------------|----------------|----------------------|
E-|----------------|----------------|----------------|----------------------|

guitar 1
e-|----------------|----------------|
B-|----------------|----------------|
G-|----2---2-2-----|----------------|
D-|----0---0-2-----|----0---0-0-----|
A-|2-2---2-----0---|----0---0-2-----|
E-|--------------2-|--2---2-----1-0-|

Hope this helps with learning the song
I think it is all correct but please correct any mistakes
Please rate and comment
Thanks :)


************************************

| x  Dead note
| h  Hammer-on
| p  Pull-off
| r  Release
| b  Bend

************************************

            
            
Suggest correction
Creating personal tab
Creating personal tab
You can edit any tab online and save it as your Personal.

You can edit, replace or remove any tab part or add personal notes – all changes will be seen only by you.

Personal tabs can be accessed anytime from any device, even offline.
Learn more »
comments
print report bad tab
5 comments total. Showing first comments.
+2 reply
redgend 244 Jan 23, 2011 06:44 AM

your second bar for guitar 1 in each verse and intro line just needs this slight adjustment.
D|----0---0-0-----|
A|----0---0-2-----|
E|--2---2-----1-0-|

0 reply
ben3296 551 Jan 25, 2011 11:28 AM

so it does, thankyou :)

-1 reply
parathy_r 10 Dec 06, 2015 04:29 AM, edited at 09:29 am

This is perfect...

guest
You may want to rate the tab now too:
select rating
Wanna post a correction for this tab? Suggest correction