Oops, an error
Loading. Please wait.

Summers End tab

version 2
version 2

Whole song

Interactive

13,655 views 27 this week
no commentswrite comment
1 2 3 4 5
x 8
add to favorites
×
Save as Personal and add changes to this tab that will be seen only by you. Learn more ›
×
You can save this tab as Personal to edit and correct it or add notes. All changes will be seen only by you. Learn more »
launch autoscroll
font size
0
reset
how to read this tab
guitar tuner
edit
Autoscroll
slow
fast
+/-
esc
set tempo
stop
Author
Difficulty
intermediate
(To whoever passes judgement on tabs before they appear on UG, the one I submitted 15 
ago is wrong in the last chorus, I corrected it on this one. Delete this line please)

Foo Fighters - Summer's End

Tabbed by BornFidelity

You can send a PM to my UG account
here if you want to contact me.

Such a wonderful song, it deserves
to be played well. As for the solo,
the middle part (with the chords) is
not exactly the solo Grohl plays, but
it would be a shame if the lovely
two-guitar harmony would get lost.
The other tab on UG has a solo that is
probably more suited for a two-guitar
band, but I prefer this one.


[Intro Riff]

e|--------------0-|
B|--------------3-|
G|--------------2-|
D|-------0---0----|
A|----03--3-0-----|
E|-33-------------|(x2)


[Verse]

e|---------------------------------------------|
B|-6-5--3---------3-5-3---6-5--3-----3---3-5-3-|
G|---------5--2--5----------------5-----5------|
D|---------------------------------------------|
A|---------------------------------------------|
E|---------------------------------------------|  
                                               |(x2)
e|-------------------3-----------------------0-|  
B|-6-5--3-----5------3-----------------------3-|
G|---------5--5------4-----------------------2-|
D|------------5------5----------------0---0----|
A|------------3------5-------------03--3-0-----|
E|-------------------3----------33-------------|


e|--------------0----------------2-|
B|--------------3----------------3-|
G|--------------2----------------2-|
D|-------0---0------------0---0----|
A|----03--3-0----------03--3-0-----|
E|-33---------------33-------------|


[Chorus]

(Barre chords sound better than open chords)

D Am C G
D Am C F
D Am C G
D Am C F


[Intro riff again]

[Verse again]

[Chorus again]


[Solo]

e|------------------------------------------------|
B|-13---15----13-15-------------------------------|
G|-15b17---14--------12-12-10---------------------|
D|----------------------------12-12---------------|
A|------------------------------------------------|
E|------------------------------------------------|

e|------------------------------------------------|
B|-13---15----13-15-------------------------------|
G|-15b17---14--------12-12-12-10-12---------------|
D|----------------------------------10------------|
A|------------------------------------------------|
E|------------------------------------------------|


e|------------------------------------------------|
B|-13---15----13-15--18b20-18-15------------------|
G|-15b17---14--------------------17b19-17b19~~~~--|
D|------------------------------------------------|
A|------------------------------------------------|
E|------------------------------------------------|

e|--------------------------------------------------|
B|--------------7-----------------8--7---8-10-8-7---|
G|-10-9---7--5--7-------10-9---7--7--7---7-7--7-7---|
D|-10-10--5--5--7-------10-10--5--------------------|
A|--------------5-----------------------------------|
E|--------------------------------------------------|

e|--------------------------------------------------|
B|--------------------------------------------------|
G|-10-9---7--5-----14b17-14-14----------------------|
D|-10-10--5--5--------------------------------------|
A|-----------------[    8x   ]----------------------|
E|--------------------------------------------------|


e|------------------------------------------------|
B|------------------------------------------------|
G|-14b17--14-12------12---------12----------------|
D|----------------15------12-15-------------------|
A|------------------------------------------------|
E|------------------------------------------------|

Last chorus (note that in the second half,
the first G has changed to F)

D Am C G
D Am C F
D Am C G
D Am C F

D Am C F
D Am C F
D Am C G
D Am C F

End as you would normally end a chorus; the intro
riff right after the F chord.



************************************

| b  Bend
| ~  Vibrato

************************************

            
            
Suggest correction
Creating personal tab
Creating personal tab
You can edit any tab online and save it as your Personal.

You can edit, replace or remove any tab part or add personal notes – all changes will be seen only by you.

Personal tabs can be accessed anytime from any device, even offline.
Learn more »
comments
print report bad tab
guest
You may want to rate the tab now too:
select rating
Wanna post a correction for this tab? Suggest correction