Oops, an error
Loading. Please wait.

Summers End tab

version 4
version 4

Whole song

Interactive

19 views 1 this week
no commentswrite comment
1 2 3 4 5
3 more votes to show rating
add to favorites
×
Save as Personal and add changes to this tab that will be seen only by you. Learn more ›
×
You can save this tab as Personal to edit and correct it or add notes. All changes will be seen only by you. Learn more »
launch autoscroll
font size
0
reset
how to read this tab
guitar tuner
edit
Autoscroll
slow
fast
+/-
esc
set tempo
stop
About this tab version
Solo more detailed, Outro-Solo and strumming pattern included. Was this info helpful? Yes No
[Intro]
e|------------------0~~-|------------------0~~-|
B|------------------3~~-|------------------3~~-|
G|------------------2~~-|------------------2~~-|
D|---------0-----0--0~~-|---------0-----0--0~~-|
A|-----0-3---3-0--------|-----0-3---3-0--------|
E|-3-3------------------|-3-3------------------|

[Verse 1]
e|-1p0-------------0-----|-1p0-------------0-----|
B|------3--1--1-------3--|------3--1--3-------3--|
G|---------------2-------|---------------2-------|
D|-----------------------|-----------------------|
A|-----------------------|-----------------------|
E|-----------------------|-----------------------|
              D  D  D U D U     D     D U D
e|-1p0--------0--0--0-0-0-3-|---3-----3-3-3-|------------------0~~-|
B|------3--1--1--1--1-1-1-0-|---0-----0-0-0-|------------------3~~-|
G|------------0--0--0-0-0-0-|---0-----0-0-0-|------------------2~~-|
D|------------2--2--2-2-2-0-|---0-----0-0-0-|---------0-----0--0~~-|
A|------------3--3--3-3-3-2-|---2-----2-2-2-|-----0-3---3-0--------|
E|------------------------3-|---3-----3-3-3-|-3-3------------------|

e|-1p0-------------0-----|-1p0-------------0-----|
B|------3--1--1-------3--|------3--1--3-------3--|
G|---------------2-------|---------------2-------|
D|-----------------------|-----------------------|
A|-----------------------|-----------------------|
E|-----------------------|-----------------------|
              D  D  D U D U     D     D U D
e|-1p0--------0--0--0-0-0-3-|---3-----3-3-3-|------------------0~~-|
B|------3--1--1--1--1-1-1-0-|---0-----0-0-0-|------------------3~~-|
G|------------0--0--0-0-0-0-|---0-----0-0-0-|------------------2~~-|
D|------------2--2--2-2-2-0-|---0-----0-0-0-|---------0-----0--0~~-|
A|------------3--3--3-3-3-2-|---2-----2-2-2-|-----0-3---3-0--------|
E|------------------------3-|---3-----3-3-3-|-3-3------------------|

e|------------------0~~-|----------------|
B|------------------3~~-|----------------|
G|------------------2~~-|----------------|
D|---------0-----0--0~~-|---------0------|
A|-----0-3---3-0--------|-----0-3---3-0--|
E|-3-3------------------|-3-3------------|

[Chorus]
   D   D   D U D       U D     U D U   D   D   D U D       U D     U D U
e|-5---5---5-5-5---|---5-5-----5-5-5-|-3---3---3-3-3---|---3-3-----3-3-3-|
B|-7---7---7-7-7---|---5-5-----5-5-5-|-5---5---5-5-5---|---3-3-----3-3-3-|
G|-7---7---7-7-7---|---5-5-----5-5-5-|-5---5---5-5-5---|---4-4-----4-4-4-|
D|-7---7---7-7-7---|---7-7-----7-7-7-|-5---5---5-5-5---|---5-5-----5-5-5-|
A|-5---5---5-5-5---|---7-7-----7-7-7-|-3---3---3-3-3---|---5-5-----5-5-5-|
E|-----------------|---5-5-----5-5-5-|-----------------|---3-3-----3-3-3-|
   1 + 2 + 3 + 4 +   1 + 2 + 3 + 4 +   1 + 2 + 3 + 4 +   1 + 2 + 3 + 4 +

   D   D   D U D       U D     U D U   D   D   D U D
e|-5---5---5-5-5---|---5-5-----5-5-5-|-3---3---3-3-3---|----------------|
B|-7---7---7-7-7---|---5-5-----5-5-5-|-5---5---5-5-5---|----------------|
G|-7---7---7-7-7---|---5-5-----5-5-5-|-5---5---5-5-5---|----------------|
D|-7---7---7-7-7---|---7-7-----7-7-7-|-5---5---5-5-5---|---------0------|
A|-5---5---5-5-5---|---7-7-----7-7-7-|-3---3---3-3-3---|-------3---3-0--|
E|-----------------|---5-5-----5-5-5-|-----------------|-1-1-3----------|
   1 + 2 + 3 + 4 +   1 + 2 + 3 + 4 +   1 + 2 + 3 + 4 + 

   D   D   D U D       U D     U D U   D   D   D U D       U D     U D U
e|-5---5---5-5-5---|---5-5-----5-5-5-|-3---3---3-3-3---|---3-3-----3-3-3-|
B|-7---7---7-7-7---|---5-5-----5-5-5-|-5---5---5-5-5---|---3-3-----3-3-3-|
G|-7---7---7-7-7---|---5-5-----5-5-5-|-5---5---5-5-5---|---4-4-----4-4-4-|
D|-7---7---7-7-7---|---7-7-----7-7-7-|-5---5---5-5-5---|---5-5-----5-5-5-|
A|-5---5---5-5-5---|---7-7-----7-7-7-|-3---3---3-3-3---|---5-5-----5-5-5-|
E|-----------------|---5-5-----5-5-5-|-----------------|---3-3-----3-3-3-|
   1 + 2 + 3 + 4 +   1 + 2 + 3 + 4 +   1 + 2 + 3 + 4 +   1 + 2 + 3 + 4 +

   D   D   D U D       U D     U D U   D   D   D U D
e|-5---5---5-5-5---|---5-5-----5-5-5-|-3---3---3-3-3---|-----------------0~~-|
B|-7---7---7-7-7---|---5-5-----5-5-5-|-5---5---5-5-5---|-----------------3~~-|
G|-7---7---7-7-7---|---5-5-----5-5-5-|-5---5---5-5-5---|-----------------2~~-|
D|-7---7---7-7-7---|---7-7-----7-7-7-|-5---5---5-5-5---|---------0-----0-----|
A|-5---5---5-5-5---|---7-7-----7-7-7-|-3---3---3-3-3---|-------3---3-0-------|
E|-----------------|---5-5-----5-5-5-|-----------------|-1-1-3---------------|
   1 + 2 + 3 + 4 +   1 + 2 + 3 + 4 +   1 + 2 + 3 + 4 + 

[Verse 2]
e|-1p0-------------0-----|-1p0-------------0-----|
B|------3--1--1-------3--|------3--1--3-------3--|
G|---------------2-------|---------------2-------|
D|-----------------------|-----------------------|
A|-----------------------|-----------------------|
E|-----------------------|-----------------------|
              D  D  D U D U     D     D U D
e|-1p0--------0--0--0-0-0-3-|---3-----3-3-3-|------------------0~~-|
B|------3--1--1--1--1-1-1-0-|---0-----0-0-0-|------------------3~~-|
G|------------0--0--0-0-0-0-|---0-----0-0-0-|------------------2~~-|
D|------------2--2--2-2-2-0-|---0-----0-0-0-|---------0-----0--0~~-|
A|------------3--3--3-3-3-2-|---2-----2-2-2-|-----0-3---3-0--------|
E|------------------------3-|---3-----3-3-3-|-3-3------------------|

e|-1p0-------------0-----|-1p0-------------0-----|
B|------3--1--1-------3--|------3--1--3-------3--|
G|---------------2-------|---------------2-------|
D|-----------------------|-----------------------|
A|-----------------------|-----------------------|
E|-----------------------|-----------------------|
              D  D  D U D U     D     D U D
e|-1p0--------0--0--0-0-0-3-|---3-----3-3-3-|------------------0~~-|
B|------3--1--1--1--1-1-1-0-|---0-----0-0-0-|------------------3~~-|
G|------------0--0--0-0-0-0-|---0-----0-0-0-|------------------2~~-|
D|------------2--2--2-2-2-0-|---0-----0-0-0-|---------0-----0--0~~-|
A|------------3--3--3-3-3-2-|---2-----2-2-2-|-----0-3---3-0--------|
E|------------------------3-|---3-----3-3-3-|-3-3------------------|

e|------------------0~~-|----------------|
B|------------------3~~-|----------------|
G|------------------2~~-|----------------|
D|---------0-----0--0~~-|---------0------|
A|-----0-3---3-0--------|-----0-3---3-0--|
E|-3-3------------------|-3-3------------|

[Chorus]
   D   D   D U D       U D     U D U   D   D   D U D       U D     U D U
e|-5---5---5-5-5---|---5-5-----5-5-5-|-3---3---3-3-3---|---3-3-----3-3-3-|
B|-7---7---7-7-7---|---5-5-----5-5-5-|-5---5---5-5-5---|---3-3-----3-3-3-|
G|-7---7---7-7-7---|---5-5-----5-5-5-|-5---5---5-5-5---|---4-4-----4-4-4-|
D|-7---7---7-7-7---|---7-7-----7-7-7-|-5---5---5-5-5---|---5-5-----5-5-5-|
A|-5---5---5-5-5---|---7-7-----7-7-7-|-3---3---3-3-3---|---5-5-----5-5-5-|
E|-----------------|---5-5-----5-5-5-|-----------------|---3-3-----3-3-3-|
   1 + 2 + 3 + 4 +   1 + 2 + 3 + 4 +   1 + 2 + 3 + 4 +   1 + 2 + 3 + 4 +

   D   D   D U D       U D     U D U   D   D   D U D
e|-5---5---5-5-5---|---5-5-----5-5-5-|-3---3---3-3-3---|----------------|
B|-7---7---7-7-7---|---5-5-----5-5-5-|-5---5---5-5-5---|----------------|
G|-7---7---7-7-7---|---5-5-----5-5-5-|-5---5---5-5-5---|----------------|
D|-7---7---7-7-7---|---7-7-----7-7-7-|-5---5---5-5-5---|---------0------|
A|-5---5---5-5-5---|---7-7-----7-7-7-|-3---3---3-3-3---|-------3---3-0--|
E|-----------------|---5-5-----5-5-5-|-----------------|-1-1-3----------|
   1 + 2 + 3 + 4 +   1 + 2 + 3 + 4 +   1 + 2 + 3 + 4 + 

   D   D   D U D       U D     U D U   D   D   D U D       U D     U D U
e|-5---5---5-5-5---|---5-5-----5-5-5-|-3---3---3-3-3---|---3-3-----3-3-3-|
B|-7---7---7-7-7---|---5-5-----5-5-5-|-5---5---5-5-5---|---3-3-----3-3-3-|
G|-7---7---7-7-7---|---5-5-----5-5-5-|-5---5---5-5-5---|---4-4-----4-4-4-|
D|-7---7---7-7-7---|---7-7-----7-7-7-|-5---5---5-5-5---|---5-5-----5-5-5-|
A|-5---5---5-5-5---|---7-7-----7-7-7-|-3---3---3-3-3---|---5-5-----5-5-5-|
E|-----------------|---5-5-----5-5-5-|-----------------|---3-3-----3-3-3-|
   1 + 2 + 3 + 4 +   1 + 2 + 3 + 4 +   1 + 2 + 3 + 4 +   1 + 2 + 3 + 4 +

   D   D   D U D       U D     U D U   D   D   D U D
e|-5---5---5-5-5---|---5-5-----5-5-5-|-3---3---3-3-3---|----------------|
B|-7---7---7-7-7---|---5-5-----5-5-5-|-5---5---5-5-5---|----------------|
G|-7---7---7-7-7---|---5-5-----5-5-5-|-5---5---5-5-5---|----------------|
D|-7---7---7-7-7---|---7-7-----7-7-7-|-5---5---5-5-5---|---------0------|
A|-5---5---5-5-5---|---7-7-----7-7-7-|-3---3---3-3-3---|-------3---3-0--|
E|-----------------|---5-5-----5-5-5-|-----------------|-1-1-3----------|
   1 + 2 + 3 + 4 +   1 + 2 + 3 + 4 +   1 + 2 + 3 + 4 +

[Solo] 
e|-------10--------10---------------------------|
B|----------10-13-----10------------------------|
G|-12b14-----------------12--10--------10----10-|
D|------------------------------12-12-----12----|
A|----------------------------------------------|
E|----------------------------------------------|

e|-------10-------10--------------------------|
B|----------10-13----10-----------------------|
G|-12b14----------------12--10-12-12p10----10-|
D|--------------------------------------12----|
A|--------------------------------------------|
E|--------------------------------------------|

e|-------10-------10-----13b15--13-10----10--------|
B|----------10-13----10---------------13----13b15~-|
G|-12b14-------------------------------------------|
D|-------------------------------------------------|
A|-------------------------------------------------|
E|-------------------------------------------------|

e|-------------------------------|     |----------|
B|-------------------------------|     |----------|
G|-10-9-7-5---11-11-12-14-12-11--|     |-10-9-7-5-|
D|-------------------------------|(x2) |----------|
A|-8—7-5-3---9--9--10-12-10-9----|     |-8--7-5-3-|
E|-------------------------------|     |----------|

e|----------------------------------------------------|
B|-------10-13p10-------13p10-------13p10-------13p10-|
G|-12b14----------12b14-------12b14-------12b14-------|
D|----------------------------------------------------|
A|----------------------------------------------------|
E|----------------------------------------------------|

e|---------------------------------------------------------------------|
B|-------13p10-------13p10-------13p10-------13p10---------------------|
G|-12b14-------12b14-------12b14-------12b14-------12-10-12---10-12----|
D|----------------------------------------------------------12------12-|
A|---------------------------------------------------------------------|
E|---------------------------------------------------------------------|

[Chorus]
   D   D   D U D       U D     U D U   D   D   D U D       U D     U D U
e|-5---5---5-5-5---|---5-5-----5-5-5-|-3---3---3-3-3---|---3-3-----3-3-3-|
B|-7---7---7-7-7---|---5-5-----5-5-5-|-5---5---5-5-5---|---3-3-----3-3-3-|
G|-7---7---7-7-7---|---5-5-----5-5-5-|-5---5---5-5-5---|---4-4-----4-4-4-|
D|-7---7---7-7-7---|---7-7-----7-7-7-|-5---5---5-5-5---|---5-5-----5-5-5-|
A|-5---5---5-5-5---|---7-7-----7-7-7-|-3---3---3-3-3---|---5-5-----5-5-5-|
E|-----------------|---5-5-----5-5-5-|-----------------|---3-3-----3-3-3-|
   1 + 2 + 3 + 4 +   1 + 2 + 3 + 4 +   1 + 2 + 3 + 4 +   1 + 2 + 3 + 4 +

   D   D   D U D       U D     U D U   D   D   D U D
e|-5---5---5-5-5---|---5-5-----5-5-5-|-3---3---3-3-3---|----------------|
B|-7---7---7-7-7---|---5-5-----5-5-5-|-5---5---5-5-5---|----------------|
G|-7---7---7-7-7---|---5-5-----5-5-5-|-5---5---5-5-5---|----------------|
D|-7---7---7-7-7---|---7-7-----7-7-7-|-5---5---5-5-5---|---------0------|
A|-5---5---5-5-5---|---7-7-----7-7-7-|-3---3---3-3-3---|-------3---3-0--|
E|-----------------|---5-5-----5-5-5-|-----------------|-1-1-3----------|
   1 + 2 + 3 + 4 +   1 + 2 + 3 + 4 +   1 + 2 + 3 + 4 + 

   D   D   D U D       U D     U D U   D   D   D U D       U D     U D U
e|-5---5---5-5-5---|---5-5-----5-5-5-|-3---3---3-3-3---|---3-3-----3-3-3-|
B|-7---7---7-7-7---|---5-5-----5-5-5-|-5---5---5-5-5---|---3-3-----3-3-3-|
G|-7---7---7-7-7---|---5-5-----5-5-5-|-5---5---5-5-5---|---4-4-----4-4-4-|
D|-7---7---7-7-7---|---7-7-----7-7-7-|-5---5---5-5-5---|---5-5-----5-5-5-|
A|-5---5---5-5-5---|---7-7-----7-7-7-|-3---3---3-3-3---|---5-5-----5-5-5-|
E|-----------------|---5-5-----5-5-5-|-----------------|---3-3-----3-3-3-|
   1 + 2 + 3 + 4 +   1 + 2 + 3 + 4 +   1 + 2 + 3 + 4 +   1 + 2 + 3 + 4 +

   D   D   D U D       U D     U D U   D   D   D U D
e|-5---5---5-5-5---|---5-5-----5-5-5-|-3---3---3-3-3---|----------------|
B|-7---7---7-7-7---|---5-5-----5-5-5-|-5---5---5-5-5---|----------------|
G|-7---7---7-7-7---|---5-5-----5-5-5-|-5---5---5-5-5---|----------------|
D|-7---7---7-7-7---|---7-7-----7-7-7-|-5---5---5-5-5---|---------0------|
A|-5---5---5-5-5---|---7-7-----7-7-7-|-3---3---3-3-3---|-------3---3-0--|
E|-----------------|---5-5-----5-5-5-|-----------------|-1-1-3----------|
   1 + 2 + 3 + 4 +   1 + 2 + 3 + 4 +   1 + 2 + 3 + 4 +

[Outro]
   D   D   D U D       U D     U D U   D   D   D U D       U D     U D U
e|-5---5---5-5-5---|---5-5-----5-5-5-|-3---3---3-3-3---|---3-3-----3-3-3-|
B|-7---7---7-7-7---|---5-5-----5-5-5-|-5---5---5-5-5---|---3-3-----3-3-3-|
G|-7---7---7-7-7---|---5-5-----5-5-5-|-5---5---5-5-5---|---4-4-----4-4-4-|
D|-7---7---7-7-7---|---7-7-----7-7-7-|-5---5---5-5-5---|---5-5-----5-5-5-|
A|-5---5---5-5-5---|---7-7-----7-7-7-|-3---3---3-3-3---|---5-5-----5-5-5-|
E|-----------------|---5-5-----5-5-5-|-----------------|---3-3-----3-3-3-|
   1 + 2 + 3 + 4 +   1 + 2 + 3 + 4 +   1 + 2 + 3 + 4 +   1 + 2 + 3 + 4 +
   D   D   D U D       U D     U D U   D   D   D U D
e|-5---5---5-5-5---|---5-5-----5-5-5-|-3---3---3-3-3---|----------------|
B|-7---7---7-7-7---|---5-5-----5-5-5-|-5---5---5-5-5---|----------------|
G|-7---7---7-7-7---|---5-5-----5-5-5-|-5---5---5-5-5---|----------------|
D|-7---7---7-7-7---|---7-7-----7-7-7-|-5---5---5-5-5---|---------0------|
A|-5---5---5-5-5---|---7-7-----7-7-7-|-3---3---3-3-3---|-------3---3-0--|
E|-----------------|---5-5-----5-5-5-|-----------------|-1-1-3----------|
   1 + 2 + 3 + 4 +   1 + 2 + 3 + 4 +   1 + 2 + 3 + 4 + 

   D   D   D U D       U D     U D U   D   D   D U D       U D     U D U
e|-5---5---5-5-5---|---5-5-----5-5-5-|-3---3---3-3-3---|---3-3-----3-3-3-|
B|-7---7---7-7-7---|---5-5-----5-5-5-|-5---5---5-5-5---|---3-3-----3-3-3-|
G|-7---7---7-7-7---|---5-5-----5-5-5-|-5---5---5-5-5---|---4-4-----4-4-4-|
D|-7---7---7-7-7---|---7-7-----7-7-7-|-5---5---5-5-5---|---5-5-----5-5-5-|
A|-5---5---5-5-5---|---7-7-----7-7-7-|-3---3---3-3-3---|---5-5-----5-5-5-|
E|-----------------|---5-5-----5-5-5-|-----------------|---3-3-----3-3-3-|
   1 + 2 + 3 + 4 +   1 + 2 + 3 + 4 +   1 + 2 + 3 + 4 +   1 + 2 + 3 + 4 +

   D   D   D U D       U D     U D U   D   D   D U D
e|-5---5---5-5-5---|---5-5-----5-5-5-|-3---3---3-3-3---|-----------------0~~-|
B|-7---7---7-7-7---|---5-5-----5-5-5-|-5---5---5-5-5---|-----------------3~~-|
G|-7---7---7-7-7---|---5-5-----5-5-5-|-5---5---5-5-5---|-----------------2~~-|
D|-7---7---7-7-7---|---7-7-----7-7-7-|-5---5---5-5-5---|---------0-----0-----|
A|-5---5---5-5-5---|---7-7-----7-7-7-|-3---3---3-3-3---|-------3---3-0-------|
E|-----------------|---5-5-----5-5-5-|-----------------|-1-1-3---------------|
   1 + 2 + 3 + 4 +   1 + 2 + 3 + 4 +   1 + 2 + 3 + 4 + 

[Outro-Solo]
e|----15----15b17r15-13-12-------------------10--------|
B|-13----13---------------13--------------13----13-10--|
G|---------------------------12--10-10-12--------------|
D|-----------------------------------------------------| (x2)
A|-----------------------------------------------------|
E|-----------------------------------------------------|

e|----15----15b17r15-13-12-----------------------------|
B|-13----13---------------13---------------------------|
G|---------------------------12--10-10-9-9-------------|
D|-----------------------------------------10-10-------| (x2)
A|-----------------------------------------------10----|
E|-----------------------------------------------------|

****************************

| h   Hammer-on
| p   Pull-off
| b   Bend
| br  Bend release
| D   Down stroke
| U   Up stroke

****************************
Suggest correction
Creating personal tab
Creating personal tab
You can edit any tab online and save it as your Personal.

You can edit, replace or remove any tab part or add personal notes – all changes will be seen only by you.

Personal tabs can be accessed anytime from any device, even offline.
Learn more »
Give kudos to tab author, rate the tab!
1 2 3 4 5
comments
print report bad tab
guest
You may want to rate the tab now too:
select rating
Wanna post a correction for this tab? Suggest correction