Oops, an error
Loading. Please wait.

The Neverending Sigh bass

613 views 9 this week
no commentswrite comment
1 2 3 4 5
3 more votes to show rating
add to favorites
×
Save as Personal and add changes to this tab that will be seen only by you. Learn more ›
×
You can save this tab as Personal to edit and correct it or add notes. All changes will be seen only by you. Learn more »
launch autoscroll
font size
0
reset
guitar tuner
edit
Autoscroll
slow
fast
+/-
esc
set tempo
stop
Author
Difficulty
--------------------------------------------------------------------
                Foo Fighters - The Neverending Sigh
--------------------------------------------------------------------


Intro:
g|-----------------------------------------------------------------|
d|---------------------------2--------------------------2/3-2-0----|
a|----1-1-1-1-----------------------1-1-1-1---------------------1--|
e|--3---------3-3-3-3-0-0-------3-3---------3-3-3-3-0-0------------|


Verse 1:
 |Part 1 (3x)                      |Part 2 (1x)                    |Whole Part 2x
g|---------------------------------|-------------------------------|
d|-------------------------2-2-2-2-|---------------------2/3-2-0---|
a|---------1-1-1-1-3-3-3-3---------|---------1-1-1-1-3-3---------1-|
e|-3-3-3-3-------------------------|-3-3-3-3-----------------------|

g|-----------------------------------------------------------------|
d|-----------------------------------------------------------------|
a|-3-3-3-3-3-3-3-3-3-3-3-3-3-3-3-3-3-3-3-3-3-3-3-3-3---------------|
e|-----------------------------------------------------------------|

g|-----------------------------------------------------------------|
d|-------------------------2-2-2-2-----------------------2/3-2-0---|
a|---------1-1-1-1-3-3-3-3-------------------1-1-1-1-3-3---------1-|
e|-3-3-3-3---------------------------3-3-3-3-----------------------|

g|-----------------------------------------------------------------|
d|-----------------------------------------------------------------|
a|-3-3-3-3-3-3-3-3-3-3-3-3-3-3-3-3-5-1-1---------------------------|
e|-----------------------------------------------------------------|


Chorus: 2x
g|-----------------------------------------------------------------|
d|-----------------------------------------------------------------|
a|-------6-6---1-1---------------6-6---1-1-------------------------|
e|-3-3---------------1-1---3-3-------------1~--1-1-----------------|
                           Don't play the last 1 1 on second repeat


Bridge:
Bass gets in with the last high E from the Guitar
g|--|---------------------------------|
d|-2|-----------------------2/3-2-0---|
a|--|---1-1-1-1---------------------1-|
e|--|-3---------3-3-3-3-0-0-----------|

g|-----------------------------------------------------------------|
d|---------------------------2--------------------------2/3-2-0----|
a|----1-1-1-1-----------------------1-1-1-1---------------------1--|
e|--3---------3-3-3-3-0-0-------3-3---------3-3-3-3-0-0------------|


Verse 2:
 |Part 1 (3x)                      |Part 2 (1x)                    |
g|---------------------------------|-------------------------------|
d|-------------------------2-2-2-2-|---------------------2/3-2-0---|
a|---------1-1-1-1-3-3-3-3---------|---------1-1-1-1-3-3---------1-|
e|-3-3-3-3-------------------------|-3-3-3-3-----------------------|

g|-----------------------------------------------------------------|
d|-----------------------------------------------------------------|
a|-3-3-3-3-3-3-3-3-3-3-3-3-3-3-3-3-5-1-1---------------------------|
e|-----------------------------------------------------------------|


Chorus: 2x
g|-----------------------------------------------------------------|
d|-----------------------------------------------------------------|
a|-------6-6---1-1---------------6-6---1-1-------------------------|
e|-3-3---------------1-1---3-3-------------1~--1-1-----------------|

g|-----------------------------------------------------------------|
d|----------------------------6/8\6-----6/8\6----------------------|
a|-------6-6---1-1--------6-6-------6-6-------3-3-3-3-3-3-3-3------|
e|-3-3---------------1-1-------------------------------------------|

g|------------------------------|
d|------6/8\6-----6/8\6---------|
a|--6-6-------6-6-------5-5--3~-|
e|------------------------------|


Bridge:
g|----------------------------------------------------------------|
d|----------0-1--1--1-0-------2-0--0------------------------------|
a|------1/3-------------1-3-3--------3-3--------------------------|
e|-3--3-----------------------------------------------------------|

Chorus: you just have to play a faster beat sometimes, you'll hear.

Fill the switch of the notes by adding some in between. You'll here it, it's not difficult.

Bridge: till the end, you can improvise on that too a little bit.



Have Fun!
Suggest correction
Creating personal tab
Creating personal tab
You can edit any tab online and save it as your Personal.

You can edit, replace or remove any tab part or add personal notes – all changes will be seen only by you.

Personal tabs can be accessed anytime from any device, even offline.
Learn more »
Give kudos to tab author, rate the tab!
1 2 3 4 5
comments
print report bad tab
guest
You may want to rate the tab now too:
select rating
Wanna post a correction for this tab? Suggest correction