Oops, an error
Loading. Please wait.

The Neverending Sigh tab

version 4
version 4

Whole song

622 views 12 this week
no commentswrite comment
1 2 3 4 5
3 more votes to show rating
add to favorites
×
Save as Personal and add changes to this tab that will be seen only by you. Learn more ›
×
You can save this tab as Personal to edit and correct it or add notes. All changes will be seen only by you. Learn more »
launch autoscroll
font size
0
reset
how to read this tab
guitar tuner
edit
Autoscroll
slow
fast
+/-
esc
set tempo
stop
Author
Difficulty
intermediate
-------------------------------------------------------------------------------
                            THE NEVERENDING SIGH - FOO FIGHTERS
-------------------------------------------------------------------------------
Tabbed by: Alex Teolis
E-mail: alexteolis@yahoo.com

Tuning: E Standard ( E A D G B E ) 

Intro dubs with effects not included.

Intro
e|--------------------------------|-------------------------------------------|
B|--------------------------------|-------------------------------------------|
G|--------------------------------|-------------------------------------------|
D|---------------------------2~~--|------------------------2h3p2-0------------|
A|--------------------------------|--------------------------------1p0--------|
E|--3/6-6-6-6-3-3-3-3-0-0-0-------|--3/6-6-6-6-3-3-3-3-0-0--------------------|

Intro Lead
e|-------------------------------------------|--------------------------------------------------|
B|-------------------------------------------|--------------------------------------------------|
G|---/15-15-15-15-12-12-12-12-9-9-9---15-----|--/15-15-15-15-12-12-12-12-9----------------------|
D|------------------------------------14-----|-----------------------------"14h15p14-12---------|
A|----13-13-13-13-10-10-10-10-7-7-7---13-----|---13-13-13-13-10-10-10-10-7--------------11-12"--|
E|-------------------------------------------|--------------------------------------------------|
note : the phrase in the quotes isn't actually in the song, but is an octave lead melody to the riff on the 
first guitar. It sounds neat if you have two guitars and each plays an octave.

Verse
Guitar 1                         x3                                         x1 
e|----------------------------------|------------------------------------------|
B|----------------------------------|------------------------------------------|
G|--------------------------0-0-0-0-|------------------------------------------|
D|--------------------------2-2-2-2-|---------------------2h3p2-0--------------|
A|----------1-1-1-1-3-3-3-3---------|---------1-1-1-1-3-3---------1p0----------|
E|--3-3-3-3-------------------------|-3-3-3-3----------------------------------|
    woe...                  it's.....
After every 3 times the first part of the riff is played, play the second one.

Guitar 2 (lead)
e|--------------------------------------------------------------------------------------------------------|
B|--------------------------------------------------------------------------------------------------------|
G|-----------9-9-9----------9-9-9----------------------------------9-9-9----------------------------------|
D|-----------9-9-9----------8-8-8----------------------------------9-9-9---------------------2h3p2-0------|
A|-----------7-7-7----------7-7-7----------------------------------7-7-7-----------------------------1p0--|
E|--------------------------------------------------------------------------------------------------------|
       woe....        it's me... The end is near , I thought you'd never leave

e|---------------------------------------------------------------------------|
B|---------------------------------------------------------------------------|
G|---------------------------------5-5-55-5-5-5-5-5-5-5----------------------|
D|---------------------------------5-5-55-5-5-5-5-5-5-5-----2h3p2-0----------|
A|---------------------------------3-3-33-3-3-3-3-3-3-3-------------1p0------|
E|---------------------------------------------------------------------------|
One last stain to get beneath the skin...                   beneath the skin

e|----------------------------------------------------------------------------|
B|----------------------------------------------------------------------------|
G|--------------------------0-0-0-0-------------------------------------------|
D|--------------------------2-2-2-2----------------------2h3p2-0--------------|
A|----------1-1-1-1-3-3-3-3------------------1-1-1-1-3-3---------1p0----------|
E|--3-3-3-3--------------------------3-3-3-3----------------------------------|

Pre Chorus
e|---------------------------------------------------------------------------|
B|---------------------------------------------------------------------------|
G|--5---5---5---5-5--5-5--5----5---7---5---3~--------------------------------|
D|--5---5---5---5-5--5-5--5----5---7---5---3~--------------------------------|
A|--3---3---3---3-3--3-3--3----3---5---3---1~--------------------------------|
E|---------------------------------------------------------------------------|
   The wish is drawn inside,  The  ne-ver-end-ing sigh

Chorus (all x2)
e|---------------------------------------------------------------------------|
B|---------------------------------------------------------------------------|
G|----------------8-8--------------------------------------------------------|
D|---5-5----------8-8-----------8-8------------------------------------------|
A|---5-5------5---6-6--8-10-8---8-8--------8---3-3--3-5-3-1------------------|
E|---3-3--5-7-------------------6-6---8-10-----1-1---------------------------|
          No      one   lets    every - one          in
         (No      ex - it,           my        ex - it)
e|---------------------------------------------------------------------------|
B|---------------------------------------------------------------------------|
G|----------------8-8--------------------------------------------------------|
D|---5-5----------8-8-----------8-8------10-----------8----------------------|
A|---5-5------5---6-6--8-10-8---8-8------10-----------8----------------------|
E|---3-3--5-7-------------------6-6------8------------6----------------------|
          No      one   lets    every - one          in

Back to Intro
Verse 2
Pre chorus


Bridge

e|---------------------------------------------------------------------------|
B|---------------------------------------------------------------------------|
G|----------------8-8--------------------------------------------------------|
D|---5-5----------8-8-----------8-8------------------------------------------|
A|---5-5----------6-6-----------8-8--------8---3-3--3-5-3-1------------------|
E|---3-3------------------------6-6---8-10-----1-1---------------------------|
          No      one   lets    every - one          in
e|---------------------------------------------------------------------------|
B|---------------------------------------------------------------------------|
G|----------------8-8--------------------------------------------------------|
D|---5-5----------8-8-----------8-8------10-----------8----------------------|
A|---5-5----------6-6-----------8-8------10-----------8----------------------|
E|---3-3------------------------6-6------8------------6----------------------|
          No      one   lets    every - one          in

e|---------------------------------------------------------------------------|
B|---------------------------------------------------------------------------|
G|----------------8-8--------------------------------------------------------|
D|---5-5----------8-8-----------8-8------------------------------------------|
A|---5-5------5---6-6--8-10-8---8-8--------8---3-3--3-5-3-1------------------|
E|---3-3--5-7-------------------6-6---8-10-----1-1---------------------------|
          No      ex - it,           my        ex - it
e|-------------------------------------------------------------|
B|-------------------------------------------------------------|
G|--8---8---8---8---8---8---8---5---5---5---5---5---5---5------|
D|--8---8---8---8---8---8---8---5---5---5---5---5---5---5------|
A|--6---6---6---6---6---6---6---3---3---3---3---3---3---3------|
E|-------------------------------------------------------------|
          No      one   lets    every - one          in

e|-------------------------------------------------------------|
B|-------------------------------------------------------------|
G|--8---8---8---8---8---8---8---8---8---8---8---8---8---8------|
D|--8---8---8---8---8---8---8---8---8---8---8---8---8---8------|
A|--6---6---6---6---6---6---6---10--10--10--10--10--10--10-----|
E|-------------------------------------------------------------|
          No      one   lets    every - one          in

e|------------------------------------------------------------------------|
B|------------------------------------------------------------------------|
G|----------------8-8-----------5-5---------------------------------------| x4
D|---5-5----------8-8-----------5-5---------------------------------------|
A|---5-5------5---6-6--8-10-8---3-3--5-7-5--5-7-5-3-2---------------------|
E|---3-3--5-7-------------------------------------------------------------|
     INNNNNNNNNNNN...................................

e|---------------------------------------------------------------------------|
B|---------------------------------------------------------------------------|
G|----------------8-8--------------------------------------------------------|
D|---5-5----------8-8-----------8-8------------------------------------------|
A|---5-5----------6-6-----------8-8--------8---3-3--3-5-3-1------------------|
E|---3-3------------------------6-6---8-10-----1-1---------------------------|
          No      one   lets    every - one          in
e|---------------------------------------------------------------------------|
B|---------------------------------------------------------------------------|
G|----------------8-8--------------------------------------------------------|
D|---5-5----------8-8-----------8-8------10-----------8----------------------|
A|---5-5----------6-6-----------8-8------10-----------8----------------------|
E|---3-3------------------------6-6------8------------6----------------------|
          No      one   lets    every - one          in

e|---------------------------------------------------------------------------|
B|---------------------------------------------------------------------------|
G|----------------8-8--------------------------------------------------------|
D|---5-5----------8-8-----------8-8------------------------------------------|
A|---5-5------5---6-6--8-10-8---8-8--------8---3-3--3-5-3-1------------------|
E|---3-3--5-7-------------------6-6---8-10-----1-1---------------------------|
          No      ex - it,           my        ex - it
e|-------------------------------------------------------------|
B|-------------------------------------------------------------|
G|--8---8---8---8---8---8---8---5---5---5---5---5---5---5------|
D|--8---8---8---8---8---8---8---5---5---5---5---5---5---5------|
A|--6---6---6---6---6---6---6---3---3---3---3---3---3---3------|
E|-------------------------------------------------------------|
          No      one   lets    every - one          in

e|-------------------------------------------------------------|
B|-------------------------------------------------------------|
G|--8---8---8---8---8---8---8---8---8---8---8---8---8---8------|
D|--8---8---8---8---8---8---8---8---8---8---8---8---8---8------|
A|--6---6---6---6---6---6---6---10--10--10--10--10--10--10-----|
E|-------------------------------------------------------------|
          No      one   lets    every - one          in

Then This until fade out with solo:

e|------------------------------------------------------------------------|
B|------------------------------------------------------------------------|
G|----------------8-8-----------5-5---------------------------------------|
D|---5-5----------8-8-----------5-5---------------------------------------|
A|---5-5------5---6-6--8-10-8---3-3--5-7-5--5-7-5-3-2---------------------|
E|---3-3--5-7-------------------------------------------------------------|
     INNNNNNNNNNNN...................................


Thats it! Please leave feedback and corrections, This was all done by ear, hopefully its accurate!

************************************

| /   slide up
| \   slide down
| h   hammer-on
| p   pull-off
| ~   vibrato
| +   harmonic
| x   Mute note
| b   Bend
| pb  Pre-bend
| br  Bend release
| pbr Pre-bend release
| brb Bend release bend

************************************
Suggest correction
Creating personal tab
Creating personal tab
You can edit any tab online and save it as your Personal.

You can edit, replace or remove any tab part or add personal notes – all changes will be seen only by you.

Personal tabs can be accessed anytime from any device, even offline.
Learn more »
Give kudos to tab author, rate the tab!
1 2 3 4 5
comments
print report bad tab
guest
You may want to rate the tab now too:
select rating
Wanna post a correction for this tab? Suggest correction