Oops, an error
Loading. Please wait.

The One bass

version 2
version 2

Whole song

Interactive

105 views 1 this week
no commentswrite comment
1 2 3 4 5
3 more votes to show rating
add to favorites
×
Save as Personal and add changes to this tab that will be seen only by you. Learn more ›
×
You can save this tab as Personal to edit and correct it or add notes. All changes will be seen only by you. Learn more »
launch autoscroll
font size
0
reset
guitar tuner
backing track
0:00
0:00
edit
Autoscroll
slow
fast
+/-
esc
set tempo
stop
-----------------------------------------------------------------------------
                             The One - Foo Fighters
-----------------------------------------------------------------------------

Tabbed by: Country Bass
E-mail: aaron.white8@education.nsw.gov.au

Great song by Foo Fighters
The expression big things come in small packages couldn't be more true with this song

Tuning: Standard

G|--------------------------------------|
D|--------------------------------------|
A|----------------------------------5-6-| x3
E|--4-5-5-5-5--4-5-5-5-5--4-5-5-5-5-----|

G|-----------------------------------------|
D|-----------------------------------------|
A|----------------------------------10-----|
E|--4-5-5-5-5--4-5-5-5-5--4-5-5-5-5----10--|

Verse

G|--------------------------------------------------------------------------|
D|----------------------------------------------------------------------9-8-|
A|--------------------------------------------------------------------------|
E|-8-8-8-88-7-7-7-77-5-5-5-55-3-3-3-33-2-2-2-22-1-1-1-11-9-9-9-99-9-9-9-----|

G|-------------------------------------------------------------------------|
D|-------------------------------------------------------------------------|
A|-------------------------------------------------------------------------| 
E|-8-8-8-88-7-7-7-77-5-5-5-55-3-3-3-33-2-2-2-22-1-1-1-11-9-9-9-99-9-9-9-99-|

Chorus

G|---------------------------------------------------------| 
D|---------------------------------------------------------|
A|-----------------4--5-5-5--5-5-5------------------------| x2
E|-4--5-5-5--5-5-5-----------------2--3-3-3-3-3-3-1-1-3-3-|

Post-Chorus

G|-----------------------------------------------------|
D|-----------------------------------------------------|
A|----------------------5-6----------------------10----|
E|-4/5555-4/5555-4/5555-----4/5555-4/5555-4/5555----10-|

Bridge

G|-----------------------------------------------------------------|
D|-----------------------------------------------------------------|
A|-5-5-5-5-5-5-5-5-------------------------------------------------|
E|-----------------5-5-5-5-5-5-5-5-3-3-3-3-3-3-3-3-1-1-1-1-1-1-1-1-|

G|-----------------------------------|
D|-----------------------------------|
A|--5-5-5-5-5-5-5-5------------------|
E|------------------5-5-5-5-5-5-5-5--|

"We go on again off....."
E|-----------------------------------------------|
B|-----------------------------------------------|
G|---------------------{-----(lead guitar)-----}-|
D|-----------------------------------------------|
A|-----------------------------------------------|
E|-4/55-4/55-4/55-4-3----------------------------|

Outro

last note, after the ending guitar riff

G|-----|
D|-----|
A|--5--|
E|-----|


Playing Order

Intro
Verse
Chorus
Post-Chorus
Verse
Chorus
Bridge
Chorus x6
Outro


Feel free to comment if any of it's a bit off


| /  slide up
| \  slide down
| h  hammer-on
| p  pull-off
| ~  vibrato
| +  harmonic
| x  Mute note
=============================================================================

            
            
Suggest correction
Creating personal tab
Creating personal tab
You can edit any tab online and save it as your Personal.

You can edit, replace or remove any tab part or add personal notes – all changes will be seen only by you.

Personal tabs can be accessed anytime from any device, even offline.
Learn more »
Give kudos to tab author, rate the tab!
1 2 3 4 5
comments
print report bad tab
guest
You may want to rate the tab now too:
select rating
Wanna post a correction for this tab? Suggest correction