Oops, an error
Loading. Please wait.
We have an official The Pretender tab made by UG professional guitarists. Check out the tab »
×
264,750 views 120 this week
35 commentsread comments
1 2 3 4 5
x 86
add to favorites
×
Save as Personal and add changes to this tab that will be seen only by you. Learn more ›
×
You can save this tab as Personal to edit and correct it or add notes. All changes will be seen only by you. Learn more »
launch autoscroll
font size
0
reset
guitar tuner
backing track
0:00
0:00
edit
Autoscroll
slow
fast
+/-
esc
set tempo
stop
Foo Fighters - The Pretender

Album: 2007 - Echoes, Silence, Patience & Grace
Instrument: Bass
Tuning: EADG

[Intro]
Rest until 00:35

[Verse]

G|-----------------|-----------------|------------------|-----------------|
D|-----------------|-----------------|------------------|-----------------|
A|0-0----0-0-0-0---|0-0----0-0-0-0---|------------------|-----------------|
E|-----------------|-----------------|2-2----2-2-2-2----|1-1----1-1-1-1---|

G|-----------------|-----------------|------------------|--------------------|
D|-----------------|-----------------|------------------|--------------------|
A|0-0----0-0-0-0---|0-0----0-0-0-0---|------------------|--------------------|
E|-----------------|-----------------|2-2----2-2-2-2----|1-1--1-1-1-1-1-0-3--|

G|-----------------|-----------------|----------------------|---------------------|
D|-----------------|-----------------|----------------------|---------------------|
A|0-0----0-0-0-0---|0-0----0-0-0-0---|--------------------3-|---------------------|
E|-----------------|-----------------|8\2-2--2-2-2-2--2-0---|1-1--1-1-1-1--1-0-3--|

G|--------------------------------|--------------------------------|
D|--------------------------------|--------------------------------|
A|0-0-0-0-0-0-0-0-0-0-0-0-0-0-0-0-|0-0-0-0-0-0-0-0-0-0-0-0-0-0-0-0-|
E|--------------------------------|--------------------------------|

G|--------------------------------|--------------------------------|
D|--------------------------------|--------------------------------|
A|--------------------------------|--------------------------------|
E|2-2-2-2-2-2-2-2-2-2-2-2-2-2-2-2-|1-1-1-1-1-1-1-1-1-1-1-1-1-1-1-1-|


[Pre-Chorus]

G|--------------------------------|
D|----------------4-4-4-4-5-5-5-5-|
A|5-5-5-5-7-7-7-7-----------------|
E|--------------------------------|


[Chorus]

G|--------------------------------|---------------------------------|---------------------------------|
D|--------------------------------|-------------------------4---4-4-|-4-4-4-4-4-4-4-4-4-4-4-4---------|
A|0-0-0-0-0-0-0-0-0-0-0-0-0-0-0-0-|-2-2-2-2-3-3-3-3-0-0-0-0---------|---------------------------------|
E|--------------------------------|---------------------------------|-------------------------1-1-1-1-|

G|--------------------------------|---------------------------------|---------------------------------|
D|-------3-----3---3-3------------|---------------------------------|---------------------4-------4-4-|
A|-----------------------0-0-0-0--|-0-0-0-0-0-0-0-0-0-0-0-0-0-0-2-2-|-2-2-3-3-3-3-0-0-0-0-------------|
E|-1-1-1---------1-----1----------|---------------------------------|---------------------------------|

G|---------------------------------|-------------------------------|---------------------------------|
D|-4-4-4-4-4-4-4-4-4-4-4-4---------|-------3-----3---3-3-----------|---------------------------------|
A|---------------------------------|-----------------------0-0-0-0-|-0-0-0-0-0-0-0-0-0-0-0-0-0-0-0-0-|
E|-------------------------1-1-1-1-|-1-1-1---------1-----1---------|---------------------------------|


[Verse]

G|----------------|-----------------|-----------------------|---------------------|
D|----------------|-----------------|-----------------------|---------------------|
A|-0-0--0-0-0-0---|0-0--0-0-0-0-----|--------------------3--|---------------------|
E|----------------|-----------------|8\2-2--2-2-2-2--2-0----|1-1--1-1-1-1--1-0-3--|

G|--------------------------------|--------------------------------|
D|--------------------------------|--------------------------------|
A|0-0-0-0-0-0-0-0-0-0-0-0-0-0-0-0-|0-0-0-0-0-0-0-0-0-0-0-0-0-0-0-0-|
E|--------------------------------|--------------------------------|

G|--------------------------------|--------------------------------|
D|--------------------------------|--------------------------------|
A|--------------------------------|--------------------------------|
E|2-2-2-2-2-2-2-2-2-2-2-2-2-2-2-2-|1-1-1-1-1-1-1-1-1-1-1-1-1-0-3---|


[Pre-Chorus]

G|--------------------------------|
D|----------------4-4-4-4-5-5-5-5-|
A|5-5-5-5-7-7-7-7-----------------|
E|--------------------------------|


[Chorus]

G|--------------------------------|---------------------------------|---------------------------------|
D|--------------------------------|-------------------------4---4-4-|-4-4-4-4-4-4-4-4-4-4-4-4---------|
A|0-0-0-0-0-0-0-0-0-0-0-0-0-0-0-0-|-2-2-2-2-3-3-3-3-0-0-0-0---------|---------------------------------|
E|--------------------------------|---------------------------------|-------------------------1-1-1-1-|

G|--------------------------------|---------------------------------|---------------------------------|
D|-------3-----3---3-3------------|---------------------------------|---------------------4-------4-4-|
A|-----------------------0-0-0-0--|-0-0-0-0-0-0-0-0-0-0-0-0-0-0-2-2-|-2-2-3-3-3-3-0-0-0-0-------------|
E|-1-1-1---------1-----1----------|---------------------------------|---------------------------------|

G|---------------------------------|-------------------------------|---------------------------------|
D|-4-4-4-4-4-4-4-4-4-4-4-4---------|-------3-----3---3-3-----------|---------------------------------|
A|---------------------------------|-----------------------0-0-0-0-|-0-0-0-0-0-0-0-0-0-0-0-0-0-0-0-0-|
E|-------------------------1-1-1-1-|-1-1-1---------1-----1---------|---------------------------------|


[Pre-Verse 1]

G|--------------------------------|
D|----------------4-4-4-4-5-5-5-5-|
A|5-5-5-5-7-7-7-7-----------------|
E|--------------------------------|


[Verse]
Rest x2
G|-----------------|-----------------|-----------------|-----------------|
D|-----------------|-----------------|-----------------|-----------------|
A|----0-------0----|----0-------0----|----0-------0----|----0-------0----|
E|-----------------|-----------------|-----------------|-----------------|
  1 + 2 + 3 + 4 +...

G|-----------------|-----------------|-----------------|-----------------|
D|-----------------|-----------------|-----------------|-----------------|
A|-0-0-0-0-0-0-0-0-|-0-0-0-0-0-0-0-0-|-0-0-0-0-0-0-0-0-|-0-0-0-0-0-0-0-0-|
E|-----------------|-----------------|-----------------|-----------------|

G|-----------------|-----------------|-----------------|-----------------|-----------|
D|-----------------|-----------------|-----------------|-----------------|-----------|
A|-0-0-0-0---0-3-4-|-5-----------3-4-|-5-----------3-4-|-5-----------3-4-|5----------|
E|-----------------|---3-4-5---5-----|---3-4-5---5-----|---3-4-5---5-----|-----------|


Rest until 3:28

[Chorus]

G|--------------------------------|---------------------------------|---------------------------------|
D|--------------------------------|-------------------------4---4-4-|-4-4-4-4-4-4-4-4-4-4-4-4---------|
A|0-0-0-0-0-0-0-0-0-0-0-0-0-0-0-0-|-2-2-2-2-3-3-3-3-0-0-0-0---------|---------------------------------|
E|--------------------------------|---------------------------------|-------------------------1-1-1-1-|

G|--------------------------------|---------------------------------|---------------------------------|
D|-------3-----3---3-3------------|---------------------------------|---------------------4-------4-4-|
A|-----------------------0-0-0-0--|-0-0-0-0-0-0-0-0-0-0-0-0-0-0-2-2-|-2-2-3-3-3-3-0-0-0-0-------------|
E|-1-1-1---------1-----1----------|---------------------------------|---------------------------------|

G|---------------------------------|-------------------------------|---------------------------------|
D|-4-4-4-4-4-4-4-4-4-4-4-4---------|-------3-----3---3-3-----------|---------------------------------|
A|---------------------------------|-----------------------0-0-0-0-|-0-0-0-0-0-0-0-0-0-0-0-0-0-0-0-0-|
E|-------------------------1-1-1-1-|-1-1-1---------1-----1---------|---------------------------------|

G|--------------------------------|---------------------------------|---------------------------------|
D|--------------------------------|-------------------------4---4-4-|-4-4-4-4-4-4-4-4-4-4-4-4---------|
A|0-0-0-0-0-0-0-0-0-0-0-0-0-0-0-0-|-2-2-2-2-3-3-3-3-0-0-0-0---------|---------------------------------|
E|--------------------------------|---------------------------------|-------------------------1-1-1-1-|

G|--------------------------------|---------------------------------|---------------------------------|
D|-------3-----3---3-3------------|---------------------------------|---------------------4-------4-4-|
A|-----------------------0-0-0-0--|-0-0-0-0-0-0-0-0-0-0-0-0-0-0-2-2-|-2-2-3-3-3-3-0-0-0-0-------------|
E|-1-1-1---------1-----1----------|---------------------------------|---------------------------------|

G|---------------------------------|-------------------------------|---------------------------------|
D|-4-4-4-4-4-4-4-4-4-4-4-4---------|-------3-----3---3-3-----------|---------------------------------|
A|---------------------------------|-----------------------0-0-0-0-|-0-0-0-0-0-0-0-0-0-0-0-0-0-0-0-0-|
E|-------------------------1-1-1-1-|-1-1-1---------1-----1---------|---------------------------------|


[Pre-Verse 2]

G|--------------------------------|
D|----------------4-4-4-4-5-5-5-5-|
A|5-5-5-5-7-7-7-7-----------------|
E|--------------------------------|


[Outro]

G|-----------------|-----------------|-----------------|-----------------|
D|-----------------|-----------------|-----------------|-----------------|
A|-0-0-0-0-0-0-0-0-|-0-0-0-0-0-0-0-0-|-0-0-0-0-0-0-0-0-|-0-0-0-0-0-0-0-0-|
E|-----------------|-----------------|-----------------|-----------------|

G|-----------------|-----------------|-----------------|-----------------|
D|-----------------|-----------------|-----------------|-----------------|
A|-0-0-0-0---0-3-4-|-5-----------3-4-|-5---------------|-----------------|
E|-----------------|---3-4-5---5-----|---3-4-5---5---5-|-5-5-5-5---------|


************************************

| h  Hammer-on
| \  Slide down

************************************
Suggest correction
Creating personal tab
Creating personal tab
You can edit any tab online and save it as your Personal.

You can edit, replace or remove any tab part or add personal notes – all changes will be seen only by you.

Personal tabs can be accessed anytime from any device, even offline.
Learn more »
comments
print report bad tab
35 comments total. Showing first comments.
+10 reply
sldfghtrike 72 Aug 24, 2007 06:57 PM

hey dude, give credit where its due, this is the same tab from fftabs.com, on that site it says that it was tabbed by hewhoknowsall

+7 reply
Jasper7979 51 Aug 28, 2007 08:51 AM

Word @ sldfghtrike - Stolen from http://www.fftabs.com/tabs_bass/2007/ThePretender.txt

0 reply
Mikey_or_Hunter 30 Sep 14, 2007 08:31 AM

Hey why is it GD so that means i have to swtich D and G can i just keep it the same and play it where it is and just tune up the A string to B

guest
You may want to rate the tab now too:
select rating
Wanna post a correction for this tab? Suggest correction