Oops, an error
Loading. Please wait.
We have an official The Pretender tab made by UG professional guitarists. Check out the tab »
×

The Pretender Tab

version 1
version 1

Whole song

Video

  • High quality, easy to follow video lesson.
215,335 views 606 this week
11 commentsread comments
1 2 3 4 5
x 36
add to favorites
launch autoscroll
font size
0
reset
how to read this tab
guitar tuner
backing track
0:00
0:00
×
Best way to learn
"The Pretender"
Autoscroll
slow
fast
+/-
esc
set tempo
stop
Difficulty
intermediate
Foo Fighters - The Pretender

taken from forthcoming album 'Echoes, Silence, Patience And Grace', which is due out in September.

EADGBe


[Intro/Verse]

e||--------5-7-5--------5--5--5-------5---------------5---5-----||
B||------5-------5------5--5--5-----5---------------5---5---5---||
G||----5-----------5----5--5--5---5---------------5-----------5-||
D||-----------------------------4-------4-4/5-4-3---------------||
A||--0---------------0-2--3--0----------------------------------||
E||-------------------------------------------------------------||


[Chorus]

Gtr.1
e||--0-0-0-0-0-0-0-0-------------0-------------------||
B||--1-1-1-1-1-1-1-1-------------1-5-5-5-5-5-5-5-5-5-||
G||--2-2-2-2-2-2-2-2-4-4-4-5-5-5-2-5-5-5-5-5-5-5-5-5-||
D||--2-2-2-2-2-2-2-2-4-4-4-5-5-5-2-4-4-4-4-4-3-3-3-3-||
A||--0-0-0-0-0-0-0-0-2-2-2-3-3-3-0-------------------||
E||--------------------------------------------------||


(I think Gtr.2 goes something like this...)
Gtr.2
e||--5-5-5-5-5-5-5-5-5-5-5-5-5-5-5-5-5-5-5-5-5-5-5-5-||
B||--5-5-5-5-5-5-5-5-5-5-5-5-5-5-5-7-7-7-7-7-6-6-6-6-||
G||--5-5-5-5-5-5-5-5-5-5-5-5-5-5-5-5-5-5-5-5-5-5-5-5-||
D||--------------------------------------------------||
A||--------------------------------------------------||
E||--------------------------------------------------||



************************************

| /  Slide up

************************************
Suggest correction
comments
print report bad tab
11 comments total. Showing first comments.
+2 reply
heartion 10 Sep 02, 2007 06:48 PM

first of all, why would you post an incomplete tab? second, watch some live videos or even the music video and you may be able to tab more accurately...

-1 reply
frankyz 51 Oct 07, 2007 02:57 AM

Just Wrong, oh so very wrong!!!

-2 reply
guitaristguy043 36 Oct 15, 2007 03:15 PM

vrey short and not very accurate.

guest
You may want to rate the tab now too:
select rating
Wanna post a correction for this tab? Suggest correction