Oops, an error
Loading. Please wait.
We have an official The Pretender tab made by UG professional guitarists. Check out the tab »
×
29,978 views 24 this week
3 commentsread comments
1 2 3 4 5
x 8
add to favorites
×
Save as Personal and add changes to this tab that will be seen only by you. Learn more ›
×
You can save this tab as Personal to edit and correct it or add notes. All changes will be seen only by you. Learn more »
launch autoscroll
font size
0
reset
guitar tuner
backing track
0:00
0:00
edit
Autoscroll
slow
fast
+/-
esc
set tempo
stop
Author
Difficulty
Unregistered
intermediate
Bass
                                                                                
G||------|------|------|------|------|------|------|------|------|------|------|
D||------|------|------|------|------|------|------|------|------|------|------|
A||------|------|------|------|------|------|------|------|------|------|------|
E||------|------|------|------|------|------|------|------|------|------|------|


                                                              
------|------|----------------------|------------------------|
------|------|----------------------|------------------------|
------|------|----------------------|------------------------|
------|------|----------5-5-----5-5-|--5-5-------5-5-----5-5-|


                                                                           
------------------------|------------------------|------------------------|
------------------------|------------------------|------------------------|
------------------------|------------------------|------------------------|
--5-5-------2-2-----2-2-|--2-2-------1-1-----1-1-|--1-1-------5-5-----5-5-|


                                                                           
------------------------|------------------------|------------------------|
------------------------|------------------------|------------------------|
------------------------|------------------------|------------------------|
--5-5-------5-5-----5-5-|--5-5-------2-2-----2-2-|--2-2-------1-1-----1-1-|


                                                                                
---------------------------|------------------------|--------------------------|
---------------------------|------------------------|--------------------------|
---------------------------|------------------------|--------------------------|
--1-1---1-0-3--5-5-----5-5-|--5-5-------5-5-----5-5-|--5-5-----14/-2-2-----2-2-|


                                                            
---------------------------|-------------------------------|
---------------------------|-------------------------------|
---------------------------|-------------------------------|
--2-2---1-0-3/-1-1-----1-1-|--1-1---1-0-3--5-5-5-5-5-5-5-5-|


                                                                      
----------------------------------|----------------------------------|
----------------------------------|----------------------------------|
----------------------------------|----------------------------------|
--5-5-5-5-5-5-5-5-5-5-5-5-5-5-5-5-|--5-5-5-5-5-5-5-5-2-2-2-2-2-2-2-2-|


                                                                     
----------------------------------|---------------------------------|
----------------------------------|---------------------------------|
----------------------------------|-----------------5-5-5-5-7-7-7-7-|
--2-2-2-2-2-2-2-2-1-1-1-1-1-1-1-1-|--1-1-1-1-1-0-3------------------|


                                                                          
--------------------------------------|----------------------------------|
--------------------------------------|----------------------------------|
--9-9-9-9-10-10-10-10-----------------|----------------------------------|
----------------------5-5-5-5-5-5-5-5-|--5-5-5-5-5-5-5-5-5-5-5-5-7-7-7-7-|


                                                                      
----------------------------------|----------------------------------|
----------------------------------|----------------------------------|
--------------9-9-9-9-9-9-9-9-9-9-|--9-9-9-9-9-9-9-9-8-8-8-8-8-8-8-8-|
--8-8-8-8-5-5---------------------|----------------------------------|


                                                                         
------------------|------------------|----------------------------------|
------------------|------------------|----------------------------------|
--8-8-8-8-8-8-8-8-|------------------|----------------------------------|
------------------|--5-5-5-5-5-5-5-5-|--5-5-5-5-5-5-5-5-5-5-5-5-7-7-7-7-|


                                                                      
----------------------------------|----------------------------------|
----------------------------------|----------------------------------|
--------------9-9-9-9-9-9-9-9-9-9-|--9-9-9-9-9-9-9-9-8-8-8-8-8-8-8-8-|
--8-8-8-8-5-5---------------------|----------------------------------|


                                                                   
------------------|----------------------|------------------------|
------------------|----------------------|------------------------|
--8-8-8-8-8-8-8-8-|----------------------|------------------------|
------------------|---------------5/17/5-|--5-5-----5-5-5-5-------|


                                                      
------------------------|----------------------------|
------------------------|----------------------------|
------------------------|----------------------------|
--5-5-----5-5-5-5-------|--2-2-----2-2-2-2---1-0-3/1-|


                                                               
---------------------------|----------------------------------|
---------------------------|----------------------------------|
---------------------------|----------------------------------|
--1-1-----1-1-1-1---1-0-3--|--5-5-5-5-5-5-5-5-5-5-5-5-5-5-5-5-|


                                                                      
----------------------------------|----------------------------------|
----------------------------------|----------------------------------|
----------------------------------|----------------------------------|
--5-5-5-5-5-5-5-5-5-5-5-5-5-5-5-5-|--2-2-2-2-2-2-2-2-2-2-2-2-2-2-2-2-|


                                                                         
---------------------------------|--------------------------------------|
---------------------------------|--------------------------------------|
---------------------------------|--5-5-5-5-7-7-7-7-9-9-9-9-10-10-10-10-|
--1-1-1-1-1-1-1-1-1-1-1-1-1-0-3--|--------------------------------------|


                                                                      
----------------------------------|----------------------------------|
----------------------------------|----------------------------------|
----------------------------------|------------------------------9-9-|
--5-5-5-5-5-5-5-5-5-5-5-5-5-5-5-5-|--5-5-5-5-7-7-7-7-8-8-8-8-5-5-----|


                                                                      
----------------------------------|----------------------------------|
----------------------------------|----------------------------------|
--9-9-9-9-9-9-9-9-9-9-9-9-9-9-9-9-|--8-8-8-8-8-8-8-8-8-8-8-8-8-8-8-8-|
----------------------------------|----------------------------------|


                                                                      
----------------------------------|----------------------------------|
----------------------------------|----------------------------------|
----------------------------------|------------------------------9-9-|
--5-5-5-5-5-5-5-5-5-5-5-5-5-5-5-5-|--5-5-5-5-7-7-7-7-8-8-8-8-5-5-----|


                                                                      
----------------------------------|----------------------------------|
----------------------------------|----------------------------------|
--9-9-9-9-9-9-9-9-9-9-9-9-9-9-9-9-|--8-8-8-8-8-8-8-8-8-8-8-8-8-8-8-8-|
----------------------------------|----------------------------------|


                                                                      
--------------------------------------|---|---|----------------------|
--------------------------------------|---|---|----------------------|
--5-5-5-5-7-7-7-7-9-9-9-9-10-10-10-10-|---|---|----------------------|
--------------------------------------|---|---|----5----5----5----5--|


                                                                     
----------------------|----------------------|----------------------|
----------------------|----------------------|----------------------|
----------------------|----------------------|----------------------|
----5----5----5----5--|----5----5----5----5--|----5----5----5----5--|


                                                                      
----------------------------------|----------------------------------|
----------------------------------|----------------------------------|
----------------------------------|----------------------------------|
--5-5-5-5-5-5-5-5-5-5-5-5-5-5-5-5-|--5-5-5-5-5-5-5-5-5-5-5-5-5-5-5-5-|


                                                                      
----------------------------------|----------------------------------|
----------------------------------|----------------------------------|
----------------------------------|----------------------------------|
--5-5-5-5-5-5-5-5-5-5-5-5-5-5-5-5-|--5-5-5-5-5-5-5-5-5-5-5-5-5-5-5-5-|


                                                                      
----------------------------------|----------------------------------|
----------------------------------|----------------------------------|
----------------------------------|----------------------------------|
--5-5-5-5-5-5-5-5-5-5-5-5-5-5-5-5-|--5-5-5-5-5-5-5-5-5-5-5-5-5-5-5-5-|


                                                                             
----------------------------------|----------------------------------|------|
----------------------------------|----------------------------------|------|
------4-4-5-5---------4-4-5-5-----|------4-4-5-5---------4-4-5-5-----|------|
--5-5---------5-5-5-5---------5-5-|--5-5---------5-5-5-5---------5-5-|------|


                                                        
------|------|------|----------------------------------|
------|------|------|----------------------------------|
------|------|------|----------------------------------|
------|------|------|--5-5-5-5-5-5-5-5-5-5-5-5-5-5-5-5-|


                                                                      
----------------------------------|----------------------------------|
----------------------------------|----------------------------------|
------------------------------9-9-|--9-9-9-9-9-9-9-9-9-9-9-9-9-9-9-9-|
--5-5-5-5-7-7-7-7-8-8-8-8-5-5-----|----------------------------------|


                                                                      
----------------------------------|----------------------------------|
----------------------------------|----------------------------------|
--8-8-8-8-8-8-8-8-8-8-8-8-8-8-8-8-|----------------------------------|
----------------------------------|--5-5-5-5-5-5-5-5-5-5-5-5-5-5-5-5-|


                                                                      
----------------------------------|----------------------------------|
----------------------------------|----------------------------------|
------------------------------9-9-|--9-9-9-9-9-9-9-9-9-9-9-9-9-9-9-9-|
--5-5-5-5-7-7-7-7-8-8-8-8-5-5-----|----------------------------------|


                                                                      
----------------------------------|----------------------------------|
----------------------------------|----------------------------------|
--8-8-8-8-8-8-8-8-8-8-8-8-8-8-8-8-|----------------------------------|
----------------------------------|--5-5-5-5-5-5-5-5-5-5-5-5-5-5-5-5-|


                                                                      
----------------------------------|----------------------------------|
----------------------------------|----------------------------------|
------------------------------9-9-|--9-9-9-9-9-9-9-9-9-9-9-9-9-9-9-9-|
--5-5-5-5-7-7-7-7-8-8-8-8-5-5-----|----------------------------------|


                                                                      
----------------------------------|----------------------------------|
----------------------------------|----------------------------------|
--8-8-8-8-8-8-8-8-8-8-8-8-8-8-8-8-|----------------------------------|
----------------------------------|--5-5-5-5-5-5-5-5-5-5-5-5-5-5-5-5-|


                                                                      
----------------------------------|----------------------------------|
----------------------------------|----------------------------------|
------------------------------9-9-|--9-9-9-9-9-9-9-9-9-9-9-9-9-9-9-9-|
--5-5-5-5-7-7-7-7-8-8-8-8-5-5-----|----------------------------------|


                                                                          
----------------------------------|--------------------------------------|
----------------------------------|--------------------------------------|
--8-8-8-8-8-8-8-8-8-8-8-8-8-8-8-8-|--5-5-5-5-7-7-7-7-9-9-9-9-10-10-10-10-|
----------------------------------|--------------------------------------|


                                                                  
--------------------------------|--------------------------------|
--------------------------------|--------------------------------|
--------------------------------|--------------------------------|
--5-5-5-5-5-5-5-5--5-5-5-5-5-5--|--5-5-5-5-5-5-5-5--5-5-5-5-5-5--|


                                                             
----------------------------------|------------------------||
----------------------------------|------------------------||
------4-4-5-5---------4-4-5-5-----|------------------------||
--5-5---------5-5-5-5---------5-5-|--5-5-----5-5-5-5-------||



            
            
Suggest correction
Creating personal tab
Creating personal tab
You can edit any tab online and save it as your Personal.

You can edit, replace or remove any tab part or add personal notes – all changes will be seen only by you.

Personal tabs can be accessed anytime from any device, even offline.
Learn more »
comments
print report bad tab
3 comments total.
+2 reply
grenadir 10 Oct 09, 2007 10:40 AM

maybe because there exist alot more difficult and a lot more easy songs ?

+1 reply
Loadupongunzz 753 Nov 11, 2008 05:34 PM

not bad, aren't there some fills during the set of F notes (8th fret, A string) in the last chorus though??

guest
Wanna post a correction for this tab? Suggest correction