Oops, an error
Loading. Please wait.
We have an official The Pretender tab made by UG professional guitarists. Check out the tab »
×
13,105 views 27 this week
3 commentsread comments
1 2 3 4 5
x 11
add to favorites
launch autoscroll
font size
0
reset
guitar tuner
backing track
0:00
0:00
×
Best way to learn
"The Pretender"
Autoscroll
slow
fast
+/-
esc
set tempo
stop
  Q=85        Q=95
 4/4
  Gtr I
  Wx12          W
|-------------|------|
|-------------|------|
|-------------|------|
|-------------|------|


  S S Q  S S S S Q  E   S S Q  S S S S Q  E
|---------------------|---------------------|
|---------------------|---------------------|
|-0-0----0-0-0-0------|-0-0----0-0-0-0------|
|---------------------|---------------------|


  S S Q  S S S S Q  E   S S Q  S S S S Q  E
|---------------------|---------------------|
|---------------------|---------------------|
|---------------------|---------------------|
|-2-2----2-2-2-2------|-1-1----1-1-1-1------|


  S S Q  S S S S Q  E   S S Q  S S S S Q  E
|---------------------|---------------------|
|---------------------|---------------------|
|-0-0----0-0-0-0------|-0-0----0-0-0-0------|
|---------------------|---------------------|


  S S Q  S S S S Q  E   S S Q  S S S S E S S E
|---------------------|--------------------------|
|---------------------|--------------------------|
|---------------------|--------------------------|
|-2-2----2-2-2-2------|-1-1----1-1-1-1---1-0-3---|


  $
  S S Q  S S S S Q  E   S S Q  S S S S Q  E
|---------------------|----------------------|
|---------------------|-------------------7\-|
|-0-0----0-0-0-0------|-0-0----0-0-0-0-------|
|---------------------|----------------------|


  S S Q  S S S S E S S E   S S Q  S S S S E S S E
|------------------------|-------------------------|
|------------------------|-------------------------|
|------------------------|-------------------------|
|-2-2----2-2-2-2---3-2-5-|-1-1----1-1-1-1---1-0-3--|


  S S S S S S S S S S S S S S S S   S S S S S S S S S S S S S S S S
|---------------------------------|---------------------------------|
|---------------------------------|---------------------------------|
|-0-0-0-0-0-0-0-0-0-0-0-0-0-0-0-0-|-0-0-0-0-0-0-0-0-0-0-0-0-0-0-0-0-|
|---------------------------------|---------------------------------|


  S S S S S S S S S S S S S S S S   S S S S S S S S S S S S S S E
|---------------------------------|-------------------------------|
|---------------------------------|-------------------------------|
|---------------------------------|-------------------------------|
|-2-2-2-2-2-2-2-2-2-2-2-2-2-2-2-2-|-1-1-1-1-1-1-1-1-1-1-1-1-1-0-3-|


  S S S S S S S S S S S S S S S S
|---------------------------------|
|-0-0-0-0-2-2-2-2-4-4-4-4-5-5-5-5-|
|---------------------------------|
|---------------------------------|


  S S E E S E E S S E.   E Q  Q  Q  E   +S  S +S  S S S S S S S S S S S S S
|----------------------|--------------|--------------------------------------|
|----------------------|--------------|--------------------------------------|
|-0-0-0-0-0-0-0-0-0-0--|-0-2--3--0----|--------------------------------------|
|----------------------|------------2-|-(2)-2-(2)-2-2-2-2-2-2-2-2-2-2-3-2-1--|


  +S  S S S S S S S S S S S S S S S   S S E E S E E S S E.   E Q  Q  Q  E
|-----------------------------------|----------------------|---------------|
|-----------3---------------3-------|----------------------|---------------|
|-----------------------------------|-0-0-0-0-0-0-0-0-0-0--|-0-2--3--0-----|
|-(1)-1-1-1---1-1-1-1-1-1-1---1-1-1-|----------------------|------------2--|


                                                             To Coda
  +S  S +S  S S S S S S S S S S S S S   S S S S S S S S S S S S S S E
|-------------------------------------|---------------------------------|
|-------------------------------------|---------3-------------------7\--|
|-------------------------------------|---------------------------------|
|-(2)-2-(2)-2-2-2-2-2-2-2-2-2-2-3-2-1-|-1-1-1-1---1-1-1-1-1-1-1-1-1-----|


                         D.S. al Coda
  W
|-------------------------------------|
|-------------------------------------|
|-------------------------------------|
|-------------------------------------|


  &
  S S S S S S S S S S S S S S S S   Wx2
|---------------------------------|--------|
|-0-0-0-0-2-2-2-2-4-4-4-4-5-5-5-5-|--------|
|---------------------------------|--------|
|---------------------------------|--------|


  E E E E E E E E   E E E E E E E E   E E E E E E E E   E E E E E E E E
|-----------------|-----------------|-----------------|-----------------|
|-----------------|-----------------|-----------------|-----------------|
|---0---0---0---0-|---0---0---0---0-|---0---0---0---0-|---0---0---0---0-|
|-----------------|-----------------|-----------------|-----------------|


  E E E E E E E E   E E E E E E E E   E E E E E E E E   E E E E E E E E
|-----------------|-----------------|-----------------|-----------------|
|-----------------|-----------------|-----------------|-----------------|
|-0-0-0-0-0-0-0-0-|-0-0-0-0-0-0-0-0-|-0-0-0-0-0-0-0-0-|-0-0-0-0-0-0-0-0-|
|-----------------|-----------------|-----------------|-----------------|


  E E E E E E E E   E E E E E E E S S
|-----------------|-------------------|
|-----------------|-------------------|
|-0-0-0-0-0-0-0-0-|-0-0-0-0-0-0-0-0-0-|
|-----------------|-------------------|


  +S  S S S S E E S S S S E S   +S  S S S S E E S S S S E.
|-----------------------------|------------------------------|
|-----------------------------|------------------------------|
|-(0)-0-3-0-5---0-0-3-0-5---0-|-(0)-0-3-0-5---0-0-3-0-5------|
|-------------3-----------3---|-------------3-----------3----|


  Q=85
  W          +W           +W           +W
|----------|------------|------------|--------|
|----------|------------|------------|--------|
|-0--------|-(0)--------|-(0)--------|-(0)----|
|----------|------------|------------|--------|


    Q=95
    S S E E S E E S S E.   E Q  Q  Q  E   +S  S +S  S S S S S S S S S S S S S
||-----------------------|--------------|-------------------------------------|
||o----------------------|--------------|-------------------------------------|
||o-0-0-0-0-0-0-0-0-0-0--|-0-2--3--0----|-------------------------------------|
||-----------------------|------------2-|-(2)-2-(2)-2-2-2-2-2-2-2-2-2-2-3-2-1-|


  S S S S S S S S S S S S S S S S   S S E E S E E S S E.   E Q  Q  Q  E
|---------------------------------|----------------------|---------------|
|---------3---------------3-------|----------------------|---------------|
|---------------------------------|-0-0-0-0-0-0-0-0-0-0--|-0-2--3--0-----|
|-1-1-1-1---1-1-1-1-1-1-1---1-1-1-|----------------------|------------2--|


  +S  S +S  S S S S S S S S S S S S S   S S S S S S S S S S S S S S E
|-------------------------------------|---------------------------------||
|-------------------------------------|---------3-------------------7\-o||
|-------------------------------------|--------------------------------o||
|-(2)-2-(2)-2-2-2-2-2-2-2-2-2-2-3-2-1-|-1-1-1-1---1-1-1-1-1-1-1-1-1-----||


  S S S S S S S S S S S S S S S S
|---------------------------------|
|-0-0-0-0-2-2-2-2-4-4-4-4-5-5-5-5-|
|---------------------------------|
|---------------------------------|


  S S S S S S S S S S S S S S S S   S S S S S S S S S S S S S S S S
|---------------------------------|---------------------------------|
|---------------------------------|---------------------------------|
|-0-0-0-0-0-0-0-0-0-0-0-0-0-0-0-0-|-0-0-0-0-0-0-0-0-0-0-0-0-0-0-0-0-|
|---------------------------------|---------------------------------|


  +S  S S S S E  E  S S S S E.     S S Q  S S S S Q  E
|--------------------------------|---------------------|
|--------------------------------|---------------------|
|-(0)-0-3-0-5----0--0-3-0-5------|-0-0----0-0-0-0------|
|-------------3-------------3----|---------------------|
Suggest correction
comments
print report bad tab
3 comments total.
0 reply
rudemech 10 Feb 04, 2013 01:01 AM

Much better than the supposed 5 star tab. Nice work!

guest
You may want to rate the tab now too:
select rating
Wanna post a correction for this tab? Suggest correction