Oops, an error
Loading. Please wait.
We have an official These Days tab made by UG professional guitarists. Check out the tab »
×
14,670 views 21 this week
6 commentsread comments
1 2 3 4 5
x 14
add to favorites
×
Save as Personal and add changes to this tab that will be seen only by you. Learn more ›
×
You can save this tab as Personal to edit and correct it or add notes. All changes will be seen only by you. Learn more »
launch autoscroll
font size
0
reset
guitar tuner
backing track
0:00
0:00
edit
Autoscroll
slow
fast
+/-
esc
set tempo
stop
Im 100% certain of this tab. People may be skeptical about the verse but listen 
very very carefully its playing the same note.

4/4
Intro
G|-----------------|
D|-----------------|
A|-----------------| X2
E|-55555555\-------|


Verse  (those are 17's) Repeat verse section as many times as needed
G|---------------------------|
D|---------------------------|
A|---------------------------|
E|-555555/--171717171717-----|

Pre-Chorus:
G|--------------------------------------------------------------------------|
D|--------------------------------------------------------------------------|
A|-33333333----------55555555----------33333333-----------------------------|
E|----------33333333-----------55555555-----------33333333333---------------|

Chorus:
G|-----------------------------------------------------------------------|
D|-----------------------------------------------------------------------|
A|---------------------------------3333333333333333-5555555555555555-----| X2
E|-555555555555-0000000000000000-----------------------------------------|

Pre-verse 
G|---------------------------|
D|---------------------------|
A|---------------------------|X2
E|-555555/--171717171717-----|

Verse:  (those are 17's) Repeat verse section as many times as needed
G|---------------------------|
D|---------------------------|
A|---------------------------|
E|-555555/--171717171717-----|

Pre-Chorus:
G|-----------------------------------------------------------------------|
D|-----------------------------------------------------------------------|
A|-3333333--------3-5555555----------33333333----------------------------|
E|--------3-333333---------3-5555555-----------33333333333---------------|

Chorus:
G|-----------------------------------------------------------------------|
D|-----------------------------------------------------------------------|
A|-----5-------57---7------------2-3-3-3303-3333303-5-5-5555-55-5555-----| X2
E|-5-55-5-55-55---0---000--000000----------------------------------------|

Bridge:
G|-----------------------------------|
D|-----------------------------------|
A|-3-3-333----------5-5-553----------|
E|--------3-3333335--------5-55-5555-|
play 3 times, then on 4th time play this:

G|------------------------------------|
D|------------------------------------|
A|-3-3-333----------------------------|
E|--------3--33333333333333-----------|


Chorus:
G|-----------------------------------------------------------------------|
D|-----------------------------------------------------------------------|
A|-----5-------57---7------------2-3-3-3303-3333303-5-5-5555-55-5555-----| X2
E|-5-55-5-55-55---0---000--000000----------------------------------------|

Outro:  (those are 17's) 
G|---------------------------|
D|---------------------------|
A|---------------------------|X3
E|-555555/--171717171717-----|

G|---------------------|
D|---------------------|
A|----------5----------|
E|-55555555------------|
Suggest correction
Creating personal tab
Creating personal tab
You can edit any tab online and save it as your Personal.

You can edit, replace or remove any tab part or add personal notes – all changes will be seen only by you.

Personal tabs can be accessed anytime from any device, even offline.
Learn more »
comments
print report bad tab
6 comments total. Showing first comments.
+5 reply
Zaqq 589 Jul 25, 2012 08:47 AM

Listen carefully during the Chorus. It really sounds like he's playing more than simply root notes.

+2 reply
Basstefan 10 Sep 11, 2012 02:07 AM

Why didn't you take the 7th on D-string instead of 17th on E? It's both the octave to the deep A and much more simple to play.

0 reply
Bassrockn 10 Mar 08, 2013 04:53 AM

In the chorus he is indeed playing more than root notes. Never the less this tab gives me a great starting point to go by. Thanks for posting my friend. Great work

guest
You may want to rate the tab now too:
select rating
Wanna post a correction for this tab? Suggest correction