Oops, an error
Loading. Please wait.

What Did I Do God As My Witness tab

version 2
version 2

Whole song

2,746 views 57 this week
4 commentsread comments
1 2 3 4 5
x 13
add to favorites
×
Save as Personal and add changes to this tab that will be seen only by you. Learn more ›
×
You can save this tab as Personal to edit and correct it or add notes. All changes will be seen only by you. Learn more »
launch autoscroll
font size
0
reset
how to read this tab
guitar tuner
edit
Autoscroll
slow
fast
+/-
esc
set tempo
stop
-------------------------------------------------------------------------------
        What Did I Do? / God As My Witness - Foo Fighters
-------------------------------------------------------------------------------
Tabbed by: matanred
E-mail: matanred@gmail.com

Tuning: Standard (EADGBe)

Watch where i wrote the chords in the 1st verse so you will know when to strum it.

Intro:
(Strum fast)
e|--------------10-----------------------------------------------------------|
B|--------------10-----------------------------------------------------------|
G|------7-------7------------------------------------------------------------|
D|------7--(or)--------------------------------------------------------------|
A|------5--------------------------------------------------------------------|
E|---------------------------------------------------------------------------|

1st Verse:
("There you go again putting words into my mouth; This is one's for you to know, and for me to find out")
(Strum last chord fast)
e|----------------------------3-------------0--------------0-----------------------------3-----------0--|
B|----------------------------3-------------2--------------0-----------------------------3-----------2--|
G|----------------------------0-------------2--------------0-----------------------------0-----------2--|
D|----------------------------0-------------2--------------2-----------------------------0-----------2--|
A|----------------------------2-------------0--------------2-----------------------------2-----------0--|
E|----------------------------3----------------------------0-----------------------------3--------------|

("All that troubling you’re on about; How you're gonna know 'till you hear it out loud?")
e|-2-------3----------3---------0-----0--------------------------------3-----------0----|
B|-3-------3----------3---------2-----0--------------------------------3-----------2----|
G|-2-------0----------0---------2-----0--------------------------------0-----------2----|
D|-0-------2----------0---------2-----2--------------------------------0-----------2----|
A|---------3----------2---------0-----2--------------------------------2-----------0----|
E|--------------------3---------------0--------------------------------3----------------|

Chorus:

e|----------------x-x-----x-x---------------------x-x------------------------|
B|----------------x-x-----x-x--5------------------x-x------------------------|
G|--7----7-7-5-5--x-x-4-4-x-x--4------------------x-x------------------------|
D|--7----7-7-5-5--x-x-4-4-x-x--2----5-4-5-7--7-7--x-x--5-4-5-7--7-7----------|
A|--5----5-5-3-3--x-x-2-2-x-x-------5-4-5-7--7-7--x-x--5-4-5-7--7-7----------|
E|----------------x-x-----x-x-------3-2-3-5--5-5--x-x--3-2-3-5--5-5----------|

2nd Verse:

e|---------------------------------------------------------------------------|
B|---------------------------------------------------------------------------|
G|--------------------------2--2--2--2-2-2-------2--2--2--2-2-2--------------|
D|-4--4--4-4-4-4------------2--2--2--2-2-2-------2--2--2--2-2-2--------------|
A|-4--4--4-4-4-4--(3 times)-0--0--0--0-0-0--3-4--0--0--0--0-0-0--3-4-0-------|
E|-2--2--2-2-2-2-------------------------------------------------------------|

e|-------------------------------------------------------------------------------------------|
B|-------------------------------------------------------------------------------------------|
G|-------------------------------------------------------------------------------------------|
D|-4--4--4-4-4-4------------5-5-5-5-5-5-5-5-5-5-5-5-5-5-5-5--7-7-7-7-7-7-7-7-7-7-7-7-7-7-7-7-|
A|-4--4--4-4-4-4--(3 times)-5-5-5-5-5-5-5-5-5-5-5-5-5-5-5-5--7-7-7-7-7-7-7-7-7-7-7-7-7-7-7-7-|
E|-2--2--2-2-2-2------------3-3-3-3-3-3-3-3-3-3-3-3-3-3-3-3--5-5-5-5-5-5-5-5-5-5-5-5-5-5-5-5-|

2nd Chorus same as 1st Chorus

3rd Verse same as 2nd Verse

Solo:

e|--10-10-10-10-------10-10-10-------10-10-12--12-12---------------------------------------|
B|--10-10-10-10-------10-10-10-------10-10-12--12-12---------------------------------------|
G|--------------12b14----------12b14------------------8-7-8-10--10-10---8-7-8-10--10-10----|
D|----------------------------------------------------7-6-7-9---9--9----7-6-7-9---9--9-----|
A|-----------------------------------------------------------------------------------------|
E|-----------------------------------------------------------------------------------------|

e|---------------------------------------------------------------------------|
B|---------------------------------------------------------------------------|
G|--9b11--9b11--9--7-7-----7---7h9-7------8-7-8-10--10-10---8-7-8-10--10-10--|
D|---------------------7/9---9-------9----7-6-7-9---9--9----7-6-7-9---9--9---|
A|---------------------------------------------------------------------------|
E|---------------------------------------------------------------------------|

4th Verse same as 2nd Verse, and this Verse ending is same as the intro

5th Verse:
("So here I go again putting words into your mouth; This one's for me to know, and for you to find out")
(Strum last chord fast)
e|----2-----3-----------------3-------------0--------------0----------------------------3-----------0--|
B|----3-----3-----------------3-------------2--------------0----------------------------3-----------2--|
G|----2-----0-----------------0-------------2--------------0----------------------------0-----------2--|
D|----0-----2-----------------0-------------2--------------2----------------------------0-----------2--|
A|----------3-----------------2-------------0--------------2----------------------------2-----------0--|
E|----------------------------3----------------------------0----------------------------3--------------|

("All that troubling I'm on about; How you gonna know 'till you hear it out loud?;")
e|-2-------3----------3------0-----0-----------------------------3-----------0----|
B|-3-------3----------3------2-----0-----------------------------3-----------2----|
G|-2-------0----------0------2-----0-----------------------------0-----------2----|
D|-0-------2----------0------2-----2-----------------------------0-----------2----|
A|---------3----------2------0-----2-----------------------------2-----------0----|
E|--------------------3------------0-----------------------------3----------------|

("All your heroes, where are they now?")
e|-2-----------------2------------------------------------------------------------|
B|-3-----------------2------------------------------------------------------------|
G|-4-----------------3------------------------------------------------------------|
D|-4-----------------4------------------------------------------------------------|
A|-2-----------------4------------------------------------------------------------|
E|-------------------2------------------------------------------------------------|

Outro:
(Repeat until the end of the song)
e|-------------------------------------------------------------------------------------------------------|
B|---------------------------------------8-----------------------------2-------2-------------------------|
G|-----7-------7-------7-------7-------9-------7-------7-------7-----2---2---2---2--------------------7--|
D|---7---7---7---7---7---7---7---7---9-------7---7---7---7---7---7--------------------4-5-7--7-7-7--9-7--|
A|-5-------4-----------------------7-------5-------4---------------0------------------4-5-7--7-7-7--9-5--|
E|-----------------7-------5-------------------------------7---------------3----------2-3-5--5-5-5--7----|

(Outro solo by Gary Clark Jr.)
(I took this solo from the first solo tab on the website. Unfortunately, I don't know who the publisher
(is so I could give him credit for that. So whoever you are: Thank You!)

e|-------------10-----12-----14--14-15-14-15-17--17b19--14--14--14h15p-14-12-|
B|---------------------------------------------------------------------------|
G|------7h9s11----s14----s16-------------------------------------------------|
D|--7h9----------------------------------------------------------------------|
A|---------------------------------------------------------------------------|
E|---------------------------------------------------------------------------|


e|--10-----------10-------------10-----------10------------------------------|
B|-----10-13b15-----10-15b15.5-----10-13b16-----10-13b16.5-------------------|
G|---------------------------------------------------------------------------|
D|---------------------------------------------------------------------------|
A|---------------------------------------------------------------------------|
E|---------------------------------------------------------------------------|


e|--10-----------------10--------------------15b17--14b15--15b17--15h17p15---|
B|-----10-13b15--(x5)-----13b15--15-15-18b19---------------------------------|
G|---------------------------------------------------------------------------|
D|---------------------------------------------------------------------------|
A|---------------------------------------------------------------------------|
E|---------------------------------------------------------------------------|


e|--------------15b17--------------------------------------------------------|
B|--15-15-18b19-------17b19--15---------15-17b19r17-15----15--7h8-7h8--10----|
G|-------------------------------14h16-----------------16-----7---7----------|
D|---------------------------------------------------------------------------|
A|---------------------------------------------------------------------------|
E|---------------------------------------------------------------------------|

************************************

| /   slide up
| \   slide down
| h   hammer-on
| p   pull-off
| ~   vibrato
| +   harmonic
| x   Mute note
| b   Bend
| pb  Pre-bend
| br  Bend release
| pbr Pre-bend release
| brb Bend release bend

************************************

            
            
Suggest correction
Creating personal tab
Creating personal tab
You can edit any tab online and save it as your Personal.

You can edit, replace or remove any tab part or add personal notes – all changes will be seen only by you.

Personal tabs can be accessed anytime from any device, even offline.
Learn more »
comments
print report bad tab
4 comments total. Showing first comments.
0 reply
MitchellMA 188 Jun 17, 2015 03:27 PM

Thanks mane!

0 reply
N04Hz_Ark 505 Nov 25, 2015 11:44 PM

Verse 2 is:

e|---------------------------------------------------------------------------|
B|---------------------------------------------------------------------------|
G|--------------------------2--2--2--2-2-2-------2--2--2--2-2-2--------------|
D|-4--4--4-4-4-4------------2--2--2--2-2-2-------2--2--2--2-2-2--------------|
A|-4--4--4-4-4-4--(3 times)-0--0--0--0-0-0--3-4--0--0--0--0-0-0--3-4-0-------|
E|-2--2--2-2-2-2-------------------------------------------------------------|
^ ^
| instead of 2 |

0 reply
ndahlberg 120 Feb 05, 2016 08:48 AM

The outro sounds more like:

e|-------------------------------------------------------------------------------------------------------|
B|---------------------------------------8-----------------------------2-------2-------------------------|
G|-----7-------7-------7-------7-------9-------7-------7-------7-----2---2---2---2--------------------7--|
D|---7---7---7---7---7---7---7---7---9-------7---7---7---7---7---7--------------------4-5-7--7-7-7--9-7--|
A|-5-------4-----------------------7-------5-------4---------------0------------------4-5-7--7-7-7--9-5--|
E|-----------------7-------5-------------------------------7---------------3----------2-3-5--5-5-5--7----|

| THIS PART |

guest
You may want to rate the tab now too:
select rating
Wanna post a correction for this tab? Suggest correction