Oops, an error
Loading. Please wait.

Word Forward chords

version 1
version 1

Whole song

Interactive

27,778 views 12 this week
1 commentread comment
1 2 3 4 5
x 6
add to favorites
×
Save as Personal and add changes to this tab that will be seen only by you. Learn more ›
×
You can save this tab as Personal to edit and correct it or add notes. All changes will be seen only by you. Learn more »
launch autoscroll
font size
0
reset
transpose
0
reset
display chords
guitar tuner
edit
Autoscroll
slow
fast
+/-
esc
set tempo
stop
Strumming
There is no strumming pattern for this song yet. and get +5 IQ
Intro (tabbed by sexyblueguitar)

e|---------------------------------------------------------------|
B|---------------------------------------------------------------|
G|-----0--------0--------0--------0--------0--------0---------0--|
D|-2-2---2--0-0---0-----------------------------------------0----|
A|-------------------3-3---3--2-2---2--3-3---3--5-5---5---2------|
E|------------------------------------------------------3--------|

e|---------------------------------------------------------------|
B|---------------------------------------------------------------|
G|-----0--------0--------0--------0--------0--------0------------|
D|-2-2---2--0-0---0----------------------------------------------|
A|-------------------3-3---3--2-2---2--3-3---3--5-5---5----------|
E|---------------------------------------------------------------|


G                        Em
Good bye Jimmy, farewell youth
C                                      F
I must be on my way I've had enough of you
G                           Em   
Was a young man, proud and true
C                                      F
Just a simple boy with nothing left to lose

Em              C
Years that I've wasted
D           Em     
These I owe you's

                        G
They're just fucking words
                Em
This is life or death
C
It's time to clear the air
F  
You better save your breath
G
Say have you heard
             Em
Say have you heard
C
The Poison in my heart
F
And voices in my head

Em              C
Years that I've wasted
D           Em
These I owe you's

              G        Em       C       G
I meant every word for word for word forward
G        Em       C       G
Word for word for word forward
G        Em       C       G
Word for word for word forward
G        Em       C       G
Word for word for word forward

Em            G
But it's only words
Em            G
I meant every word
Em                   G
They're just fucking words

G        Em        C       G    (repeat)
Word for word for word forward


            
            
Suggest correction
Creating personal tab
Creating personal tab
You can edit any tab online and save it as your Personal.

You can edit, replace or remove any tab part or add personal notes – all changes will be seen only by you.

Personal tabs can be accessed anytime from any device, even offline.
Learn more »
comments
print report bad tab
1 comment total.
0 reply
Yurok Hugh 21 Mar 07, 2013 12:02 AM

It's nice but I would rather play G - Em7 - Cadd9 - F and Dsus4 :)

guest
You may want to rate the tab now too:
select rating
Wanna post a correction for this tab? Suggest correction