Oops, an error
Loading. Please wait.

Sun Is Gone Tab

83 views 1 this week
no commentswrite comment
1 2 3 4 5
please rate
add to favorites
launch autoscroll
font size
0
reset
how to read this tab
guitar tuner
Tab Pro tools
  • play this tab
  • loop segment
  • change instrument
  • show fretboard
  • metronome
×
Best way to learn
"Sun Is Gone"
Autoscroll
slow
fast
+/-
esc
set tempo
stop
Contributor
Difficulty
intermediate
G# Fm Cm Gm

Main tune:
e|--------------------------------------------------------------------------|
B|-----4--------4---------------4--------4----------------------------------|
G|--------5--------5------5--------5--------5-----5-------------------------|
D|--6--------6---------6-----3--------3--------3--------1-----1-----1-----1-|
A|---------------------------------------------------3-----3-----3-----3----|
E|--------------------------------------------------------------------------|


e|--------------------------------------------------------------------------|
B|--------------------------------------------------------------------------|
G|--------------------------------------------------------------------------|
D|-----1-----1--------------------------------------------------------------|
A|--3-----3--------5-----5--------------------------------------------------|
E|--------------3-----3-----------------------------------------------------|


e|--------------------------------------------------------------------------|
B|-----4--------4---------------4--------4----------------------------------|
G|--------5--------5------5--------5--------5-----5-------------------------|
D|--6--------6---------6-----3--------3--------3--------1-----1-----1-----1-|
A|---------------------------------------------------3-----3-----3-----3----|
E|--------------------------------------------------------------------------|


e|--------------------------------------------------------------------------|
B|--------------------------------------------------------------------------|
G|--------------------------------------------------------------------------|
D|-----1-----1--------------------------------------------------------------|
A|--3-----3-----3--1--------------------------------------------------------|
E|--------------------4--3--------------------------------------------------|


Chorus:
e|--------------------------------------------------------------------------|
B|--------------------------------------------------------------------------|
G|--------------------------------------------------------------------------|
D|--------------------------------------------------------------------------|
A|--------------------3--3--3--1--------------------------------------------|
E|--4--3--1--1--3--1--------------4--3h4------------------------------------|

Guitar Fills:

e|----------------|
B|----------------|
G|--10b11--8------|
D|------------10--|
A|----------------|
E|----------------|

   Chorus fill:
e|--16--15------16--15----------------------------------|
B|----------13----------11--13--------------------------|
G|---------------------------------5--7--8--7--5-----5--|
D|------------------------------8-----------------8-----|
A|------------------------------------------------------|
E|------------------------------------------------------|

e|--16--15------16--15--18b20--18--16--18--16--15--16--15----------|
B|----------13---------------------------------------------16--13--|
G|-----------------------------------------------------------------|
D|-----------------------------------------------------------------|
A|-----------------------------------------------------------------|
E|-----------------------------------------------------------------|


e|------------------------|
B|--------6b8b6-----------|
G|--5--8---------8--5--8--|
D|------------------------|
A|------------------------|
E|------------------------|


e|--6--4--3--|
B|-----------|
G|-----------|
D|-----------|
A|-----------|
E|-----------|


e|--------------13----------13-----------13----------13---------13----------|
B|------13--16------------------16p13--------16p13-------16p13------16p13---|
G|--15----------------------------------------------------------------------|
D|--------------------------------------------------------------------------|
A|--------------------------------------------------------------------------|
E|--------------------------------------------------------------------------|

Solo:

e|--------------------------------------------------------------------------|
B|--------6--6h8--6--8--------6--6-----6h8--13--18b20--16--16---------------|
G|--5--8----------------8--5--------8--------------------------17--17--15---|
D|--------------------------------------------------------------------------|
A|--------------------------------------------------------------------------|
E|--------------------------------------------------------------------------|


e|---------------------------------------------------------------------------------|
B|---------------------------------------------------------16------16--18b20-------|
G|------------------------------------------------15---17------17-------------17~~~|
D|--15--17------15--17------15h17p15--15--15--17-----------------------------------|
A|----------18----------15---------------------------------------------------------|
E|---------------------------------------------------------------------------------|

I keep on walking down the roads that lead me to your door,
Although you’re not there;
I see the world in such a way i’ve never did before,
And i’m getting scared;
I listen the birds - they cry today,
As if it’s only a game;
I’m waving the sky tonight goodbye
And i’m starting to sigh:

Sun is gone, sun is gone
{the sun is fading away}
Sun is gone, sun is gone

I seem to think about the dreams you had before,
Now distant and pale;
The nights we drank and used to cry about the lonely wine,
Are fading away;
I’m getting along with flow of change
And it’s all very strange;
The air, when it rains, is feeling cruel,
When i’m thinking of you

Sun is gone, sun is gone
{the sun is fading away}
Sun is gone, sun is gone
Summer’s gone, summer’s gone
{the sun is fading away}
Summer’s gone, summer’s gone
comments
We did not receive enough feedback on this tab! Please rate:
print report bad tab
1 2 3 4 5
I want to post or [tab]
guest
You may want to rate the tab now too:
select rating
Please do not post tabs as comments. Select "correction" instead!