Oops, an error
Loading. Please wait.

Lemon Tree bass

version 2
version 2

Whole song

  • Improvised bass tab which tries to follow the bras... Show more
868 views 12 this week
no commentswrite comment
1 2 3 4 5
3 more votes to show rating
add to favorites
×
Save as Personal and add changes to this tab that will be seen only by you. Learn more ›
×
You can save this tab as Personal to edit and correct it or add notes. All changes will be seen only by you. Learn more »
launch autoscroll
font size
0
reset
guitar tuner
edit
Autoscroll
slow
fast
+/-
esc
set tempo
stop
Author
Difficulty
About this tab version
Improvised bass tab which tries to follow the brass sections in the song as close as possible. Was this info helpful? Yes No
Lemon Tree by Fool's Garden                                    

Improvised Bass Tab
by bReathl3sS

There are 6 major parts:
Intro
Verse
Chorus
Interlude
Bridge
Outro

Played in the order

Intro
2x Verse
Chorus
Interlude
Verse
Bridge
Interlude
Chorus
Outro

Parts are always the same with 2 exceptions:

Verse before Bridge: the last bar of the verse differs.

Chorus before Outro: the last 2 bars of the chorus differ.


Enjoy playing!


[Intro]

     Q    Q    Q    Q       Q    Q    Q    Q       Q    Q    Q    Q       Q    Q    Q    Q     
G||----------------------|----------------------|----------------------|----------------------|
D||--3---------3---------|----------------------|--3---------3---------|----------------------|
A||----------------------|--3---------3---------|----------------------|--3---------3----2----|
E||----------------------|----------------------|----------------------|----------------------|

     Q    Q    Q    Q       Q    Q    Q    Q       Q    Q    Q    Q       Q    H.            
G| ----------------------|----------------------|----------------------|--------------------|
D| ----------------------|----------------------|--3-------------------|--3-----------------|
A| --1---------1---------|--3---------3---------|------------3---------|--------------------|
E| ----------------------|----------------------|----------------------|--------------------|


[Verse 1] : "I'm sitting here ..."

     Q    Q    Q    E  E     Q    Q    Q    E  E     Q    Q    Q    E  E     Q    Q    Q    E  E   
G| -----------------------|-----------------------|-----------------------|-----------------------|
D| --3-----------------3--|--------------------1--|--3-----------------3--|--------------------1--|
A| ------------3----------|--3---------3----------|------------3----------|--3---------3----------|
E| -----------------------|-----------------------|-----------------------|-----------------------|

     Q    Q    Q    E  E     Q    Q    Q    E  E     Q    Q    Q    E  E     Q    Q    Q    E  E   
G| -----------------------|-----------------------|-----------------------|-----------------------|
D| --3-----------------3--|--------------------1--|--3-----------------3--|-----------------------|
A| ------------3----------|--3---------3----------|------------3----------|--3---------3-------2--|
E| -----------------------|-----------------------|-----------------------|-----------------------|

     Q    Q    Q    E  E     Q    Q    Q    E  E     Q    Q    Q    Q       Q    H.            
G| -----------------------|-----------------------|----------------------|--------------------|
D| ------------3-------1--|------------5-------1--|--3--------------1----|--3-----------------|
A| --1--------------------|--3--------------------|------------3---------|--------------------|
E| -----------------------|-----------------------|----------------------|--------------------|


[Verse 2] : "I'm driving around ..."

     Q    Q    Q    E  E     Q    Q    Q    E  E     Q    Q    Q    E  E     Q    Q    Q    E  E   
G| -----------------------|-----------------------|-----------------------|-----------------------|
D| --3-----------------3--|--------------------1--|--3-----------------3--|--------------------1--|
A| ------------3----------|--3---------3----------|------------3----------|--3---------3----------|
E| -----------------------|-----------------------|-----------------------|-----------------------|

     Q    Q    Q    E  E     Q    Q    Q    E  E     Q    Q    Q    E  E     Q    Q    Q    E  E   
G| -----------------------|-----------------------|-----------------------|-----------------------|
D| --3-----------------3--|--------------------1--|--3-----------------3--|-----------------------|
A| ------------3----------|--3---------3----------|------------3----------|--3---------3-------2--|
E| -----------------------|-----------------------|-----------------------|-----------------------|

     Q    Q    Q    E  E     Q    Q    Q    E  E     Q    Q    Q    Q       Q    H.            
G| -----------------------|-----------------------|----------------------|--------------------|
D| ------------3-------1--|------------5-------1--|--3--------------1----|--3-----------------|
A| --1--------------------|--3--------------------|------------3---------|--------------------|
E| -----------------------|-----------------------|----------------------|--------------------|


[Chorus] : "I wonder how ..."

     Q.     E  Q.     S S    Q    E  S S Q.     S S    Q.     E  Q.     S S    Q.     S S Q    Q     
G| -----------------------|-------8-----------------|------------5----------|-----------------------|
D| --6------------------6-|--------------8----------|---------------------3-|-------------5---------|
A| ------------6----------|--6---------6----------6-|--8--------------------|--3--------3------3----|
E| -----------------------|-------------------------|-----------------------|-----------------------|

     Q.     E  Q.     S S    Q.     E  Q.     E     Q    Q    Q.     S S    E  S S E  E  E  E  E  E   
G| -----------------------|----------------------|-----------------------|---------------------------|
D| ------------6----------|----------------------|--6------------------6-|---------------------------|
A| --4------------------4-|--6-------------------|------------6----------|--6----6-4-----3-----------|
E| -----------------------|------------6---------|-----------------------|---------------------6-----|

     Q.     E  Q.     S S    Q.     S S Q    Q       Q.     S S Q.     E     Q.     S S Q    Q     
G| -----------------------|-----------------------|-------------5---------|-----------------------|
D| --6------------------6-|-------------8---------|-----------------------|-------------5---------|
A| ------------6----------|--6--------6------6----|--8--------8-----------|--3--------3------3----|
E| -----------------------|-----------------------|-----------------------|-----------------------|

     Q.     S S Q.     S S    Q.     S S H           Q.     S S H           H        H         
G| ------------------------|--7-------------------|----------------------|--------------------|
D| -------------6----------|----------------------|----------------------|--------------------|
A| --4--------4----------4-|-----------5----------|--6--------6----------|--------------------|
E| ------------------------|-------------6--------|-------------6--------|--6--------6--------|


[Interlude] : "Dah ..."

     Q    Q    Q    E  E     Q    Q    Q    E  E     Q    Q    Q    E  E     Q    Q    Q    Q     
G| -----------------------|-----------------------|-----------------------|----------------------|
D| --3-----------------3--|--------------------1--|--3-----------------3--|----------------------|
A| ------------3----------|--3---------3----------|------------3----------|--3---------3----2----|
E| -----------------------|-----------------------|-----------------------|----------------------|

     Q    Q    Q    E  E     Q    Q    Q    E  E     Q    Q    Q    Q       Q    H.            
G| -----------------------|-----------------------|----------------------|--------------------|
D| ------------3-------1--|------------5-------1--|--3--------------1----|--3-----------------|
A| --1--------------------|--3--------------------|------------3---------|--------------------|
E| -----------------------|-----------------------|----------------------|--------------------|


[Verse 3] : "I'm sitting here ..."

     Q    Q    Q    E  E     Q    Q    Q    E  E     Q    Q    Q    E  E     Q    Q    Q    E  E   
G| -----------------------|-----------------------|-----------------------|-----------------------|
D| --3-----------------3--|--------------------1--|--3-----------------3--|--------------------1--|
A| ------------3----------|--3---------3----------|------------3----------|--3---------3----------|
E| -----------------------|-----------------------|-----------------------|-----------------------|

     Q    Q    Q    E  E     Q    Q    Q    E  E     Q    Q    Q    E  E     Q    Q    Q    E  E   
G| -----------------------|-----------------------|-----------------------|-----------------------|
D| --3-----------------3--|--------------------1--|--3-----------------3--|-----------------------|
A| ------------3----------|--3---------3----------|------------3----------|--3---------3-------2--|
E| -----------------------|-----------------------|-----------------------|-----------------------|

     Q    Q    Q    E  E     Q    Q    Q    E  E     Q    Q    Q    Q       E  E  E  E  E  E  E  E   
G| -----------------------|-----------------------|----------------------|--------------------------|
D| ------------3-------1--|------------5-------1--|--3--------------1----|--3-----------------------|
A| --1--------------------|--3--------------------|------------3---------|--------1--3--4--3--1--2--|
E| -----------------------|-----------------------|----------------------|-----3--------------------|


[Bridge] : "Isolation ..."

     Q    E  E  Q    E  E     Q    E  E  Q    Q       Q    E  E  Q    E  E     Q    E  E  Q    Q     
G| ------------------------|-----------------------|------------------------|-----------------------|
D| ------------------------|-------------5----2----|--3-------3-------------|--3-------3--6----3----|
A| --3-------3-------------|--3-------3------------|-------------3-------3--|-----------------------|
E| -------------3-------3--|-----------------------|------------------------|-----------------------|

     Q    E  E  Q    E  E     Q    E  E  Q    Q       Q    E  E  Q    Q       Q    Q    Q    Q     
G| ------------------------|-----------------------|-----------------------|----------------------|
D| ------------------------|-------------5---------|--6-------6--8----6----|--5-------------------|
A| --6-------6-------------|--6-------6-------6----|-----------------------|------------3---------|
E| -------------6-------6--|-----------------------|-----------------------|----------------------|

[Interlude] : "I'm steppin' around ..."

     Q    Q    Q    E  E     Q    Q    Q    E  E     Q    Q    Q    E  E     Q    Q    Q    Q     
G| -----------------------|-----------------------|-----------------------|----------------------|
D| --3-----------------3--|--------------------1--|--3-----------------3--|----------------------|
A| ------------3----------|--3---------3----------|------------3----------|--3---------3----2----|
E| -----------------------|-----------------------|-----------------------|----------------------|

     Q    Q    Q    E  E     Q    Q    Q    E  E     Q    Q    Q    Q       Q    H.            
G| -----------------------|-----------------------|----------------------|--------------------|
D| ------------3-------1--|------------5-------1--|--3--------------1----|--3-----------------|
A| --1--------------------|--3--------------------|------------3---------|--------------------|
E| -----------------------|-----------------------|----------------------|--------------------|


[Chorus] : "I wonder how ..."

     Q.     E  Q.     S S    Q    E  S S Q.     S S    Q.     E  Q.     S S    Q.     S S Q    Q     
G| -----------------------|-------8-----------------|------------5----------|-----------------------|
D| --6------------------6-|--------------8----------|---------------------3-|-------------5---------|
A| ------------6----------|--6---------6----------6-|--8--------------------|--3--------3------3----|
E| -----------------------|-------------------------|-----------------------|-----------------------|

     Q.     E  Q.     S S    Q.     E  Q.     E     Q    Q    Q.     S S    E  S S E  E  E  E  E  E   
G| -----------------------|----------------------|-----------------------|---------------------------|
D| ------------6----------|----------------------|--6------------------6-|---------------------------|
A| --4------------------4-|--6-------------------|------------6----------|--6----6-4-----3-----------|
E| -----------------------|------------6---------|-----------------------|---------------------6-----|

     Q.     E  Q.     S S    Q.     S S Q    Q       Q.     S S Q.     E     Q.     S S Q    Q     
G| -----------------------|-----------------------|-------------5---------|-----------------------|
D| --6------------------6-|-------------8---------|-----------------------|-------------5---------|
A| ------------6----------|--6--------6------6----|--8--------8-----------|--3--------3------3----|
E| -----------------------|-----------------------|-----------------------|-----------------------|

     Q.     S S Q.     S S    Q.     S S H           Q.     S S Q.     S S    E.  S Q    Q    Q     
G| ------------------------|--7-------------------|------------------------|-----------------------|
D| -------------6----------|----------------------|------------------------|-----------------------|
A| --4--------4----------4-|-----------5----------|--6--------6------------|-----------------------|
E| ------------------------|-------------6--------|-------------6--------6-|--0-----1----4----6----|

[Outro] : "I wonder how ..."

     Q.     E  Q.     S S    Q.     S S Q.     S S    Q.     E  Q.     S S    Q.     E  Q.     E   
G| -----------------------|------------------------|------------5----------|----------------------|
D| ---------------------6-|-------------8----------|-------------------6-L-|--5-------------------|
A| ------------6----------|--6--------6----------6-|--8--------------------|------------6---------|
E| --4--------------------|------------------------|-----------------------|----------------------|

     Q.     E  Q.     E     Q.     E  Q.     E     Q.     E  Q.     E     Q.     E  H         
G| ----------------------|----------------------|----------------------|---------------------|
D| ------------6---------|----------------------|------------6---------|---------------------|
A| --4-------------------|--6-------------------|--4-------------------|--6------------------|
E| ----------------------|------------6---------|----------------------|---------------------|

     Q.     E  Q.     E     W                   W                  
G| ----------------------|-------------------|-------------------||
D| ------------6---------|-------------------|--6----------------||
A| --4-------------------|--6----------------|-------------------||
E| ----------------------|-------------------|-------------------||



Duration Legend
---------------
W - whole
H - half
Q - quarter
E - 8th
S - 16th
. - note dotted

Tablature Legend
----------------
L - tied note



            
            
Suggest correction
Creating personal tab
Creating personal tab
You can edit any tab online and save it as your Personal.

You can edit, replace or remove any tab part or add personal notes – all changes will be seen only by you.

Personal tabs can be accessed anytime from any device, even offline.
Learn more »
Give kudos to tab author, rate the tab!
1 2 3 4 5
comments
print report bad tab
guest
You may want to rate the tab now too:
select rating
Wanna post a correction for this tab? Suggest correction