Oops, an error
Loading. Please wait.

Lemon Tree Chords

version 4
version 4

Whole song

Interactive

64,340 views 627 this week
no commentswrite comment
1 2 3 4 5
x 5
add to favorites
launch autoscroll
font size
0
reset
transpose
0
reset
display chords
guitar tuner
Autoscroll
slow
fast
+/-
esc
set tempo
stop
Help us to improve Ultimate-Guitar.com Take our survey!
×
[Intro]
e|--------------------------------------------------------------------|
B|-----8----------8-----------7----------7----------8----------8------|
G|-----9----------8-----------7----------7----------8----------8------|
D|-----9----------9-----------9----------9----------9----------9------|
A|--7----------7---------------------------------7----------7---------|
E|-------------------------7----------7-------------------------------|

e|--------------------------------------------------------------------|
B|-----7---------------------5---------5---------7--------7-----------|
G|-----7---------------------5---------5---------7--------7-----------|
D|-----9---------------------7---------7---------9--------9-----------|
A|--------------------------------------------------------------------|
E|--7-------7------6------5---------5--------7---------7--------------|

e|------------------------------------------------------------------------|
B|-----8------------------------------------------------------------------|
G|-----9------------------------------------------------------------------|
D|-----9------------------------------------------------------------------|
A|--7-------------------------------7-------------------------------------|
E|-------------7----------10----------------------------------------------|
Suggest correction
comments
print report bad tab
guest
You may want to rate the tab now too:
select rating
Wanna post a correction for this tab? Suggest correction