Oops, an error
Loading. Please wait.

Yellow Lemon Tree Tab

version 1
version 1

Whole song

29,839 views 12 this week
no commentswrite comment
1 2 3 4 5
excellent!
x 7
add to favorites
launch autoscroll
font size
0
reset
how to read this tab
guitar tuner
Tab Pro tools
  • play this tab
  • loop segment
  • change instrument
  • show fretboard
  • metronome
×
Best way to learn
"Yellow Lemon Tree"
Autoscroll
slow
fast
+/-
esc
set tempo
stop
Contributor
Tabbed by: dashulic
Email: dashulic@hotmail.com

Tuning: Standard EADGBE
Intro:
    C#m                 G#m
e|-----4--4------4--4------4--4------4--4----|
B|-----5--5------5--5------4--4------4--4----|
G|-----6--6------6--6------4--4------4--4----|
D|-------------------------------------------|
A|--4---------4------------------------------|
E|----------------------4---------4----------|

    C#m                G#m          F#m
e|-----4--4------4--4------4-----------2--2--|
B|-----5--5------5--5------4-----------2--2--|
G|-----6--6------6--6------4-----------2--2--|
D|-------------------------------------------|
A|--4---------4------------------------------|
E|---------------------4------4--3--2--------|

    G#m               C#m
e|-----4--4-----4--4-----4-----------4-------|
B|-----4--4-----4--4-----5-----------5-------|
G|-----4--4-----4--4-----6-----------6-------|
D|-------------------------------------------|
A|--------------------4-----------4----------|
E|--4--------4--------------4--7-------------|

Verse pattern:
    C#m		        G#m
e|-----4--4------4--4------4--4------4--4----|
B|-----5--5------5--5------4--4------4--4----|
G|-----6--6------6--6------4--4------4--4----|
D|-------------------------------------------|
A|--4---------4------------------------------|
E|----------------------4---------4----------|

    C#m		      G#m
e|-----4--4------4--4------4--4-----4--4-----|
B|-----5--5------5--5------4--4-----4--4-----|
G|-----6--6------6--6------4--4-----4--4-----|
D|-------------------------------------------|
A|--4---------4------------------------------|
E|---------------------4---------4-----------|

    C#m		      G#m
e|-----4--4------4--4------4--4-----4--4-----|
B|-----5--5------5--5------4--4-----4--4-----|
G|-----6--6------6--6------4--4-----4--4-----|
D|-------------------------------------------|
A|--4---------4------------------------------|
E|---------------------4---------4-----------|

    F#m		      G#m
e|-----2--2------2--2------4--4-----4--4-----|
B|-----2--2------2--2------4--4-----4--4-----|
G|-----2--2------2--2------4--4-----4--4-----|
D|-------------------------------------------|
A|-------------------------------------------|
E|--2---------2---------4---------4----------|

    F#m		      G#m
e|-----2--2------2--2------4--4-----4--4-----4-----------4--|
B|-----2--2------2--2------4--4-----4--4-----5-----------5--|
G|-----2--2------2--2------4--4-----4--4-----6-----------6--|
D|----------------------------------------------------------|
A|----------------------------------------4-----------4-----|
E|--2---------2---------4---------4-------------4--7--------|

Chorus: the same plucking pattern.


Verse 1:
    C#m			  G#m
I'm sitting here in the boring room
     C#m		  	G#m
It's just another rainy Sunday afternoon
    C#m		
I'm wasting my time
      G#m
I got nothing to do
    F#m
I'm hanging around
    G#m
I'm waiting for you
    F#m		  G#m		C#m
But nothing ever happens and I wonder

Verse 2:
I'm driving around in my car
I'm driving too fast
I'm driving too far
I'd like to change my point of view
I feel so lonely
I'm waiting for you
But nothing ever happens and I wonder

Chorus:
   E
I wonder how
   B
I wonder why
C#m				   G#m
Yesterday you told me 'bout the blue blue sky
A                   B                     E        B
And all that I can see is just a yellow lemon-tree
     E              B
I'm turning my head up and down
     C#m			      C#m
I'm turning turning turning turning turning around
    A              B                    E 
And all that I can see is just another lemon-tree

Verse 3:
I'm sitting here
I miss the power
I'd like to go out taking a shower
But there's a heavy cloud inside my head
I feel so tired
Put myself into bed
While nothing ever happens and I wonder

Bridge:
  C#      B               F#m
Isolation is not good for me
  B          A              G#m
Isolation I don't want to sit on the lemon-tree

    C#m                      G#m
I'm steppin' around in the desert of joy
C#m			 G#m
Baby anyhow I'll get another toy
      F#m		  G#m		C#m
And everything will happen and you wonder

Chorus

please feel free to email me may you have any questions or comments
Cheers!

comments
print report bad tab
I want to post or [tab]
guest
You may want to rate the tab now too:
select rating
Please do not post tabs as comments. Select "correction" instead!