Oops, an error
Loading. Please wait.

Autocrat bass

version 2
version 2

Whole song

62 views 1 this week
no commentswrite comment
1 2 3 4 5
3 more votes to show rating
add to favorites
×
Save as Personal and add changes to this tab that will be seen only by you. Learn more ›
×
You can save this tab as Personal to edit and correct it or add notes. All changes will be seen only by you. Learn more »
launch autoscroll
font size
0
reset
guitar tuner
edit
Autoscroll
slow
fast
+/-
esc
set tempo
stop
Author
Difficulty
Autocrat
For Against

Artists
Guitar: Harry Dingman III
Bass: Jeffrey Runnings
Drums: Greg Hill

Album: Echelons
                     Standard Tuning

Intro and Verse Riff's
Verse part 1
Play 5x (guitar enters fifth time)
------------------------------------------------------------|
------------------------------------------x-----------------|
----7-7-----7-7-7---7-7-7----7-7-7-----x--------------------|
------------------------------------------------------------|
Verse part 2
Play 2x
------------------------------------------------------------|
--------------------------------------x---------------------|
-----------------------------------x-----x------------------|
----8-8------8-8-8---8-8-8----8-8---------------------------|

Play first riff again 2x Then play Second riff 2x
Onto Chorus
Play Chorus 4x
------------------------------------------------------------------|
7-7-7-7-7-7-7-7-5-5-5-5-5-5-5-5-2-2-2-2-2-2-2-2-3-3-3-3-3-3-3-3-5-|
------------------------------------------------------------------|
------------------------------------------------------------------|

Bridge (Guitar plays 2x, come in on third with this, play 2x)
-----------------------------------------------------------------|
---7-7-----7-7-7-----7-7-7-----7-7-x-0-x-0-----------------------|
-----------------------------------------------------------------|
-----------------------------------------------------------------|

Play Verse part 1 2x
Play Verse part 2 2x
Play Chorus 4x

Outro part 1 (play 4x)
-----9-9---------9-9-9-----9-9-9----------------------------------|
-----9-9---------9-9-9-----9-9-9----------------------------------|
-----9-9---------9-9-9-----9-9-9----------------------------------|
-----7-7---------7-7-7-----7-7-7----------------------------------|
Play Outro part 1 while adding this (play 5x)
-----------------------------------------------------------------|
-----------9---7---5---------------------------------------------|
-----------------------------------------------------------------|
-----------------------------------------------------------------|
Play This final time
---------9-9-----------------------------------------------------|
---------9-9-----------------------------------------------------|
---------9-9-----------------------------------------------------|
---------7-7-----------------------------------------------------|

This should be AT LEAST 99.9% correct (i learned it from the lead guitarist personally)
Suggest correction
Creating personal tab
Creating personal tab
You can edit any tab online and save it as your Personal.

You can edit, replace or remove any tab part or add personal notes – all changes will be seen only by you.

Personal tabs can be accessed anytime from any device, even offline.
Learn more »
Give kudos to tab author, rate the tab!
1 2 3 4 5
comments
print report bad tab
guest
You may want to rate the tab now too:
select rating
Wanna post a correction for this tab? Suggest correction