Oops, an error
Loading. Please wait.

Im Not Dead Yet Tab

version 1
version 1

Whole song

Interactive

18,231 views 9 this week
8 commentsread comments
1 2 3 4 5
accurate
x 6
add to favorites
launch autoscroll
font size
0
reset
how to read this tab
guitar tuner
Autoscroll
slow
fast
+/-
esc
set tempo
stop
Help us to improve Ultimate-Guitar.com Take our survey!
×
Author
Tuning
D A D G B E
===========================================================================
                  I'm Not Dead Yet - For All Those Sleeping
===========================================================================
                 http://www.myspace.com/forallthosesleeping
---------------------------------------------------------------------------

Ok, this is my first tab that I've made, but I've been using Ultimate Guitar for a while 
so i know roughly how a tab should be.

For some time now, after listening to this song, I've been wondering "How do you play 
song?". So I sat and waited for a tab so I could play it and, there is no tab. I was 
to myself "Someone hurry up and get
this tab online!", and still no tab.

So after a long time, I decided to try and learn how to play this on my own. I watched 
band do their acoustic version of I'm Not Dead Yet and after hard work, I figured out a 
to play it.

Now I know this isn't actualy the proper way that they play it, but it's a
way to play all of the song. Some of the part may be out on the tab if they
are just adapt them by listening to the song or e-mail me.

Eventualy I will come back, when I've learnt it, and write a proper tab with more detail 
both guitars. But until then, here's the first version.

---------------------------------------------------------------------------
Tabbed by: TangoRevenge
E-mail: tango_revenge@hotmail.co.uk

Tuning: Drop D - DADBGE

Intro -

e|-----------------------------------------------------------------------|
B|-8-8-8-8-8-8-8-8-8-8-8-8-8-8-8-8-8---5-5-5-5-5-5-5-5---6-6-6-6-6-6-6-6-|
G|-5-5-5-5-5-5-5-5-5-5-5-5-5-5-5-5-5---2-2-2-2-2-2-2-2---3-3-3-3-3-3-3-3-|
D|-5-5-5-5-5-5-5-5-5-5-5-5-5-5-5-5-5---2-2-2-2-2-2-2-2---3-3-3-3-3-3-3-3-|
A|-7-7-7-7-7-7-7-7-7-7-7-7-7-7-7-7-7---------------------5-5-5-5-5-5-5-5-|
D|-----------------------------------------------------------------------|

e|-----------------------------------------------------------------------|
B|-8-8-8-8-8-8-8-8-8-8-8-8-8-8-8-8-8---6-6-6-6-6-6-6-6---5~--------------|
G|-5-5-5-5-5-5-5-5-5-5-5-5-5-5-5-5-5---3-3-3-3-3-3-3-3---2~--------------|
D|-5-5-5-5-5-5-5-5-5-5-5-5-5-5-5-5-5---3-3-3-3-3-3-3-3---2~--------------|
A|-7-7-7-7-7-7-7-7-7-7-7-7-7-7-7-7-7---5-5-5-5-5-5-5-5-------------------|
D|-----------------------------------------------------------------------|


Verse -

e|-----------------------------------------------------------------------|
B|-----------------------------------------------------------------------|
G|-----------------------------------------------------------------------|
D|-7-7-7-7-7-7-7-7-7-7-7-7-7-7-7-7-7---3-3-3-3-3-3-3-3---5-5-5-5-5-5-5-5-|
A|-7-7-7-7-7-7-7-7-7-7-7-7-7-7-7-7-7---3-3-3-3-3-3-3-3---5-5-5-5-5-5-5-5-|
D|-7-7-7-7-7-7-7-7-7-7-7-7-7-7-7-7-7---3-3-3-3-3-3-3-3---5-5-5-5-5-5-5-5-|

       Slow down my chest can't keep up.......................that we're

e|-----------------------------------------------------------------------|
B|-----------------------------------------------------------------------|
G|-----------------------------------------------------------------------|
D|-7-7-7-7-7-7-7-7-7-7-7-7-7-7-7-7-7---3-3-3-3-3-3-3-3---5-5-5-5-5-5-5-5-|
A|-7-7-7-7-7-7-7-7-7-7-7-7-7-7-7-7-7---3-3-3-3-3-3-3-3---5-5-5-5-5-5-5-5-|
D|-7-7-7-7-7-7-7-7-7-7-7-7-7-7-7-7-7---3-3-3-3-3-3-3-3---5-5-5-5-5-5-5-5-|

   Moving.                 Now we're   Moviiiiiing!

Pre-Chorus -

e|-----------------------------------------------------------------------|
B|-----------------------------------------------------------------------|
G|-----------------------------------------------------------------------|
D|-3-3-3-3--3-3-3-5-5--5-5-5---0-0-x-x-x-x--0-0-0-0-x-x-x-x-x-x----------|
A|-3-3-3-3--3-3-3-5-5--5-5-5---0-0-x-x-x-x--0-0-0-0-x-x-x-x-x-x----------|
D|-3-3-3-3--3-3-3-5-5--5-5-5---0-0-x-x-x-x--0-0-0-0-x-x-x-x-x-x----------|

   DEEPER AND DEEPER!          NOW WE'RE FALLING!

e|-----------------------------------------------------------------------|
B|-----------------------------------------------------------------------|
G|-----------------------------------------------------------------------|
D|-3-3-3-3--3-3-3-5-5--5-5-5---0-0-x-x-x-x--0-0-0-0-x-x-x-x-x-x----------|
A|-3-3-3-3--3-3-3-5-5--5-5-5---0-0-x-x-x-x--0-0-0-0-x-x-x-x-x-x----------|
D|-3-3-3-3--3-3-3-5-5--5-5-5---0-0-x-x-x-x--0-0-0-0-x-x-x-x-x-x----------|

   FASTER AND FASTER!          THERE'S NOTHING LEEEEFT!

Chorus -

e|-----------------------------------------------------------------------|
B|-8-8-8-8-8-8-8-8-8-8-8-8-8-8-8-8-8---5-5-5-5-5-5-5-5---6-6-6-6-6-6-6-6-|
G|-5-5-5-5-5-5-5-5-5-5-5-5-5-5-5-5-5---2-2-2-2-2-2-2-2---3-3-3-3-3-3-3-3-|
D|-5-5-5-5-5-5-5-5-5-5-5-5-5-5-5-5-5---2-2-2-2-2-2-2-2---3-3-3-3-3-3-3-3-|
A|-7-7-7-7-7-7-7-7-7-7-7-7-7-7-7-7-7---------------------5-5-5-5-5-5-5-5-|
D|-----------------------------------------------------------------------|

   Please wake me because this         surely can't be   happening!

e|-----------------------------------------------------------------------|
B|-8-8-8-8-8-8-8-8-8-8-8-8-8-8-8-8-8---6-6-6-6-6-6-6-6---5-5-5-5-5-5-5-5-|
G|-5-5-5-5-5-5-5-5-5-5-5-5-5-5-5-5-5---3-3-3-3-3-3-3-3---2-2-2-2-2-2-2-2-|
D|-5-5-5-5-5-5-5-5-5-5-5-5-5-5-5-5-5---3-3-3-3-3-3-3-3---2-2-2-2-2-2-2-2-|
A|-7-7-7-7-7-7-7-7-7-7-7-7-7-7-7-7-7---5-5-5-5-5-5-5-5-------------------|
D|-----------------------------------------------------------------------|

   But the touch is so real            the touch is so reaaal!

e|-----------------------------------------------------------------------|
B|-----------------------------------------------------------------------|
G|-------------------------------------7-7-7---9-9-9---------------------|
D|-3-3-3-3-3-3-3-3---5-5-5-5-5-5-5-5---5-5-5---7-7-7---4-4-4-4-4-4-4-4---|
A|-3-3-3-3-3-3-3-3---5-5-5-5-5-5-5-5---5-5-5---7-7-7---2-2-2-2-2-2-2-2---|
D|-3-3-3-3-3-3-3-3---5-5-5-5-5-5-5-5---5-5-5---7-7-7---2-2-2-2-2-2-2-2---|

   YOUR EYES SPEAK SO CLEARLY!          I heard every word you said.

e|-----------------------------------------------------------------------|
B|-----------------------------------------------------------------------|
G|-------------------------------------9-9-9---7~------------------------|
D|-3-3-3-3-3-3-3-3---5-5-5-5-5-5-5-5---7-7-7---5~------------------------|
A|-3-3-3-3-3-3-3-3---5-5-5-5-5-5-5-5---7-7-7---5~------------------------|
D|-3-3-3-3-3-3-3-3---5-5-5-5-5-5-5-5---7-7-7---5~------------------------|

   YOUR WORDS ARE SO DEADLY!                      But I'm not dead yet.

Verse - (Listen to the song to get the timing)

e|-------------------------------------------------------|
B|-------------------------------------------------------|
G|--------------------------5-5-5-5--7-7-----------------|
D|-7-7--7---3--3---7-7--7---3-3-3-3--5-5---7-7--7---3--3-|
A|-7-7--7---3--3---7-7--7---3-3-3-3--5-5---7-7--7---3--3-|
D|-7-7--7---3--3---7-7--7---3-3-3-3--5-5---7-7--7---3--3-|

   YOUUUU!             CAN'T SEEM TO       HIIIDE!!

e|-------------------------------------------------------|
B|-------------------------------------------------------|
G|--------------------------5-5-5-5--7-7-----------------|
D|-7-7--7---3--3---7-7--7---3-3-3-3--5-5---7-7--7---3--3-|
A|-7-7--7---3--3---7-7--7---3-3-3-3--5-5---7-7--7---3--3-|
D|-7-7--7---3--3---7-7--7---3-3-3-3--5-5---7-7--7---3--3-|

          WHAT'S INSIDE!

e|-------------------------------------------------------|
B|-------------------------------------------------------|
G|--------------------------5-5-5-5--7-7-----------------|
D|-7-7--7---3--3---7-7--7---3-3-3-3--5-5---7-7--7---3--3-|
A|-7-7--7---3--3---7-7--7---3-3-3-3--5-5---7-7--7---3--3-|
D|-7-7--7---3--3---7-7--7---3-3-3-3--5-5---7-7--7---3--3-|

                       CAN'T SEEM TO       HIIIDE!!

e|-------------------------|
B|-------------------------|
G|-------------------------|
D|-7-7--7---3--3---7-7--7--|
A|-7-7--7---3--3---7-7--7--|
D|-7-7--7---3--3---7-7--7--|

          WHAT'S INSIDE!

Pre-Chorus -

e|-----------------------------------------------------------------------|
B|-----------------------------------------------------------------------|
G|-----------------------------------------------------------------------|
D|-3-3-3-3--3-3-3-5-5--5-5-5---0-0-x-x-x-x--0-0-0-0-x-x-x-x-x-x----------|
A|-3-3-3-3--3-3-3-5-5--5-5-5---0-0-x-x-x-x--0-0-0-0-x-x-x-x-x-x----------|
D|-3-3-3-3--3-3-3-5-5--5-5-5---0-0-x-x-x-x--0-0-0-0-x-x-x-x-x-x----------|

   DEEPER AND DEEPER!          NOW WE'RE FALLING!

e|-----------------------------------------------------------------------|
B|-----------------------------------------------------------------------|
G|-----------------------------------------------------------------------|
D|-3-3-3-3--3-3-3-5-5--5-5-5---0-0-x-x-x-x--0-0-0-0-x-x-x-x-x-x----------|
A|-3-3-3-3--3-3-3-5-5--5-5-5---0-0-x-x-x-x--0-0-0-0-x-x-x-x-x-x----------|
D|-3-3-3-3--3-3-3-5-5--5-5-5---0-0-x-x-x-x--0-0-0-0-x-x-x-x-x-x----------|

   FASTER AND FASTER!          THERE'S NOTHING LEEEEFT!

Chours -

Chorus -

e|-----------------------------------------------------------------------|
B|-8-8-8-8-8-8-8-8-8-8-8-8-8-8-8-8-8---5-5-5-5-5-5-5-5---6-6-6-6-6-6-6-6-|
G|-5-5-5-5-5-5-5-5-5-5-5-5-5-5-5-5-5---2-2-2-2-2-2-2-2---3-3-3-3-3-3-3-3-|
D|-5-5-5-5-5-5-5-5-5-5-5-5-5-5-5-5-5---2-2-2-2-2-2-2-2---3-3-3-3-3-3-3-3-|
A|-7-7-7-7-7-7-7-7-7-7-7-7-7-7-7-7-7---------------------5-5-5-5-5-5-5-5-|
D|-----------------------------------------------------------------------|

   Please wake me because this         surely can't be   happening!

e|-----------------------------------------------------------------------|
B|-8-8-8-8-8-8-8-8-8-8-8-8-8-8-8-8-8---6-6-6-6-6-6-6-6---5-5-5-5-5-5-5-5-|
G|-5-5-5-5-5-5-5-5-5-5-5-5-5-5-5-5-5---3-3-3-3-3-3-3-3---2-2-2-2-2-2-2-2-|
D|-5-5-5-5-5-5-5-5-5-5-5-5-5-5-5-5-5---3-3-3-3-3-3-3-3---2-2-2-2-2-2-2-2-|
A|-7-7-7-7-7-7-7-7-7-7-7-7-7-7-7-7-7---5-5-5-5-5-5-5-5-------------------|
D|-----------------------------------------------------------------------|

   But the touch is so real            the touch is so reaaal!

e|-----------------------------------------------------------------------|
B|-----------------------------------------------------------------------|
G|-------------------------------------7-7-7---9-9-9---------------------|
D|-3-3-3-3-3-3-3-3---5-5-5-5-5-5-5-5---5-5-5---7-7-7---4-4-4-4-4-4-4-4---|
A|-3-3-3-3-3-3-3-3---5-5-5-5-5-5-5-5---5-5-5---7-7-7---2-2-2-2-2-2-2-2---|
D|-3-3-3-3-3-3-3-3---5-5-5-5-5-5-5-5---5-5-5---7-7-7---2-2-2-2-2-2-2-2---|

   YOUR EYES SPEAK SO CLEARLY!          I heard every word you said.

e|---------------------------------------------------------------|
B|---------------------------------------------------------------|
G|-------------------------------------7~------------------------|
D|-3-3-3-3-3-3-3-3---5-5-5-5-5-5-5-5---5~------------------------|
A|-3-3-3-3-3-3-3-3---5-5-5-5-5-5-5-5---5~------------------------|
D|-3-3-3-3-3-3-3-3---5-5-5-5-5-5-5-5---5~------------------------|

   YOUR WORDS ARE SO DEADLY!

Bridge/Sort of Solo (maybe?) -

e|---------------------------------------------------------------|
B|---------------------------------------------------------------|
G|--(Drums)------------------------------------------------------|
D|---------------------------------------------------------------|
A|---------------------------------------------------------------|
D|---------------------------------------------------------------|

e|----------------------------------------------------------------------|
B|----------------------------------------------------------------------|
G|----------------------------------------------------------------------|
D|-0-0-0-0-0--0-0--0-0--0-0-0-0-0-0-0-0--0-0-0-0-0--0-0--0-0------------|
A|-0-0-0-0-0--0-0--0-0--0-0-0-0-0-0-0-0--0-0-0-0-0--0-0--0-0------------|
D|-0-0-0-0-0--0-0--0-0--0-0-0-0-0-0-0-0--0-0-0-0-0--0-0--0-0------------|
PM|=========================================================|

                                                         SHAKE THINGS UP!

e|---------------------------------------|
B|---------------------------------------|
G|-2-2-2-2-2--2-2--2-2--2-2-2-2-2-2-2-2--|
D|-0-0-0-0-0--0-0--0-0--0-0-0-0-0-0-0-0--| x3
A|-0-0-0-0-0--0-0--0-0--0-0-0-0-0-0-0-0--|
D|-0-0-0-0-0--0-0--0-0--0-0-0-0-0-0-0-0--|

e|---------------------------------------|
B|---------------------------------------|
G|-2-2-2-2-2--2-2--2-2--2-2-2-2-2-2-2-2--|
D|-0-0-0-0-0--0-0--0-0--0-0-0-0-0-0-0-0--|
A|-0-0-0-0-0--0-0--0-0--0-0-0-0-0-0-0-0--|
D|-0-0-0-0-0--0-0--0-0--0-0-0-0-0-0-0-0--|

                        SHAKE THINGS UP!

e|---------------------------------------|
B|---------------------------------------|
G|-2-2-2-2-2--2-2--2-2--2-2-2-2-2-2-2-2--|
D|-0-0-0-0-0--0-0--0-0--0-0-0-0-0-0-0-0--| x4
A|-0-0-0-0-0--0-0--0-0--0-0-0-0-0-0-0-0--|
D|-0-0-0-0-0--0-0--0-0--0-0-0-0-0-0-0-0--|

Pre-Chorus -

e|-----------------------------------------------------------------------|
B|-----------------------------------------------------------------------|
G|-----------------------------------------------------------------------|
D|-7~----------------------------------2~----------------3~--------------|
A|-7~----------------------------------2~----------------3~--------------|
D|-7~----------------------------------2~----------------3~--------------|

   Please wake me because this surely cant be happening           But the

e|-----------------------------------------------------------------------|
B|-----------------------------------------------------------------------|
G|-----------------------------------------------------------------------|
D|-7~----------------------------------2~----------------3-3-3-3-3-3-3-3-|
A|-7~----------------------------------2~----------------3-3-3-3-3-3-3-3-|
D|-7~----------------------------------2~----------------3-3-3-3-3-3-3-3-|

   Touch is so real                 The touch is sooooooooo!

Chorus -

e|-----------------------------------------------------------------------|
B|-8-8-8-8-8-8-8-8-8-8-8-8-8-8-8-8-8---5-5-5-5-5-5-5-5---6-6-6-6-6-6-6-6-|
G|-5-5-5-5-5-5-5-5-5-5-5-5-5-5-5-5-5---2-2-2-2-2-2-2-2---3-3-3-3-3-3-3-3-|
D|-5-5-5-5-5-5-5-5-5-5-5-5-5-5-5-5-5---2-2-2-2-2-2-2-2---3-3-3-3-3-3-3-3-|
A|-7-7-7-7-7-7-7-7-7-7-7-7-7-7-7-7-7---------------------5-5-5-5-5-5-5-5-|
D|-----------------------------------------------------------------------|

   Please wake me because this         surely can't be   happening!

e|-----------------------------------------------------------------------|
B|-8-8-8-8-8-8-8-8-8-8-8-8-8-8-8-8-8---6-6-6-6-6-6-6-6---5-5-5-5-5-5-5-5-|
G|-5-5-5-5-5-5-5-5-5-5-5-5-5-5-5-5-5---3-3-3-3-3-3-3-3---2-2-2-2-2-2-2-2-|
D|-5-5-5-5-5-5-5-5-5-5-5-5-5-5-5-5-5---3-3-3-3-3-3-3-3---2-2-2-2-2-2-2-2-|
A|-7-7-7-7-7-7-7-7-7-7-7-7-7-7-7-7-7---5-5-5-5-5-5-5-5-------------------|
D|-----------------------------------------------------------------------|

   But the touch is so real            the touch is so reaaal!

e|-----------------------------------------------------------------------|
B|-----------------------------------------------------------------------|
G|-------------------------------------7-7-7---9-9-9---------------------|
D|-3-3-3-3-3-3-3-3---5-5-5-5-5-5-5-5---5-5-5---7-7-7---4-4-4-4-4-4-4-4---|
A|-3-3-3-3-3-3-3-3---5-5-5-5-5-5-5-5---5-5-5---7-7-7---2-2-2-2-2-2-2-2---|
D|-3-3-3-3-3-3-3-3---5-5-5-5-5-5-5-5---5-5-5---7-7-7---2-2-2-2-2-2-2-2---|

   YOUR EYES SPEAK SO CLEARLY!          I heard every word you said.

e|---------------------------------------------------------------|
B|---------------------------------------------------------------|
G|-------------------------------------5-5-5-7~------------------|
D|-3-3-3-3-3-3-3-3---5-5-5-5-5-5-5-5---3-3-3-5~------------------|
A|-3-3-3-3-3-3-3-3---5-5-5-5-5-5-5-5---3-3-3-5~------------------|
D|-3-3-3-3-3-3-3-3---5-5-5-5-5-5-5-5---3-3-3-5~------------------|

   YOUR WORDS ARE SO DEADLY!                  But I'm not dead yet.
Suggest correction
comments
print report bad tab
8 comments total. Showing first comments.
+1 reply
CitiesofxRefuge 20 wrote on September 2 2010, 05:07 pm

It should be a half step lower; drop Db. But other than that, spot on :)

Get job (y)

0 reply
CitiesofxRefuge 20 wrote on September 2 2010, 05:17 pm

Oh. Well, the acoustic version is Db. My bad :)

0 reply
TangoRevenge 113 wrote on September 5 2010, 09:14 am

Yeah, I was torn between the 2 tunings when I listened to both versions aswell :)

guest
You may want to rate the tab now too:
select rating
Please do not post tabs as comments. Select "correction" instead!