Oops, an error
Loading. Please wait.

Im Not Dead Yet Tab

version 2
version 2

Whole song

Interactive

668 views 1 this week
no commentswrite comment
1 2 3 4 5
please rate
add to favorites
launch autoscroll
font size
0
reset
how to read this tab
guitar tuner
Autoscroll
slow
fast
+/-
esc
set tempo
stop
Help us to improve Ultimate-Guitar.com Take our survey!
×
Author
Difficulty
Tuning
adver 197
novice
D A D G B E
For All Those Sleeping - I'm Not Dead Yet
Album: Cross Your Fingers
Year: 2010

Tuning: Drop D
All parts and all guitars.


Tabbed by ADVER



Intro
Guitar 1
e|-------------------------------------|
B|-88888-55555-66666--888888-666666-5~-|
G|-xxxxx-xxxxx-xxxxx--xxxxxx-xxxxxx-x--|
D|-55555-22222-33333--555555-333333-2~-|
A|-------------------------------------|
D|-------------------------------------|


Guitar 2

e|--------------------------------------|
B|--------------------------------------|
G|-99999-555555-77777---99999-555555-7~-|
D|-xxxxx-xxxxxx-xxxxx---xxxxx-xxxxxx-x--|
A|-77777-333333-55555---77777-333333-5~-|
D|--------------------------------------|


Guitar 3

e|---------------------------------------|
B|---------------------------------------|
G|-22222-555555-777777---222222----------|
D|-22222-555555-777777---222222-33333-0~-|
A|-00000-333333-555555---000000-33333-0~-|
D|------------------------------33333-0~-|


Guitar 4
e|------------15---------------15----------15--------|
B|-13131313----x-13131313-------x-13131313--x-131313-|
G|--x-x-x-x---12--x-x-x-x------12--x-x-x-x-12--x-x-x-|
D|-10101010------10101010---------10101010----101010-|
A|---------------------------------------------------|
D|---------------------------------------------------|

Verse

Guitar 1 (x2)
e|----------------------------------|
B|----------------------------------|
G|----------------------------------|
D|----------------------------------|
A|-0-7-10-0--5-7-5-3--5-0-5-7-0-3-5-|
D|----------------------------------|

Guitar 1 cont. (x2)
e|---------------------------------|
B|---------------------------------|
G|---------------------------------|
D|---------------------------------|
A|-0-10-7-0-7-5-3-5---0-3-5-7-5-7~-|
D|---------------------------------|

Guitar 2
e|----------------------------------------------------|
B|----------------------------------------------------|
G|-22222222------------------22222222-----------------|
D|-22222222-3333333-5555555--22222222-3333333-5555555-|
A|-00000000-3333333-5555555--00000000-3333333-5555555-|
D|----------3333333-5555555-----------3333333-5555555-|
   xxxxxxxx xxxxxxx xxxxxxx  xxxxxxxx xxxxxxx xxxxxxx


Pre-Chorus
Guitar 1
e|-------------------------------------------------------------|
B|-------------------------------------------------------------|
G|-------------------------------------------------------------|
D|-3333333~555-5555~000-00-0-0~---3333333~555-5555~000-00-0-0~-|
A|-3333333~555-5555~000-00-0-0~---3333333~555-5555~000-00-0-0~-|
D|-3333333~555-5555~000-00-0-0~---3333333~555-5555~000-00-0-0~-|
   xxxxxxx xxx xxxx xxx xx x x    xxxxxxx xxx xxxx xxx xx x




Chorus
Guitar 1
e|------------------------------------|
B|-88888-55555-66666-888888-666666-5~-|
G|-xxxxx-xxxxx-xxxxx-xxxxxx-xxxxxx-x--|
D|-55555-22222-33333-555555-333333-2~-|
A|------------------------------------|
D|------------------------------------|


Guitar 2

e|--------------------------------------|
B|--------------------------------------|
G|-99999-555555-77777---99999-555555-7~-|
D|-xxxxx-xxxxxx-xxxxx---xxxxx-xxxxxx-x--|
A|-77777-333333-55555---77777-333333-5~-|
D|--------------------------------------|


Guitar 3

e|---------------------------------------|
B|---------------------------------------|
G|-22222-555555-777777---222222----------|
D|-22222-555555-777777---222222-33333-0~-|
A|-00000-333333-555555---000000-33333-0~-|
D|------------------------------33333-0~-|


Guitar 4
e|------------15---------------15----------15--------|
B|-13131313----x-13131313-------x-13131313--x-131313-|
G|--x-x-x-x---12--x-x-x-x------12--x-x-x-x-12--x-x-x-|
D|-10101010------10101010---------10101010----101010-|
A|---------------------------------------------------|
D|---------------------------------------------------|





Post-Chorus

Guitar 1
e|-33----33----33----------------------33-------33-------33-----------------|
B|----55----55----55----------------------55-------55-------55--------------|
G|-------55----55-----777-999-555555---------55-------55-------------777-5~-|
D|--------------------xxx-xxx-xxxxxx---------------------------------xxx-x--|
A|--------------------555-777-333333---------------------------------555-3~-|
D|--------------------------------------------------------------------------|

Guitar 2
e|-------------------------------------------------|
B|-88888888888888-1010-8-10-8-10-888888------8888~-|
G|-xxxxxxxxxxxxxx--x-x-x--x-x--x-xxxxxx------xxxx--|
D|-55555555555555--7-7 5--7-5--7-555555------5555~-|
A|-------------------------------------------------|
D|-------------------------------------------------|

Guitar 3
e|---------------------------------------------------|
B|---------------------------------------------------|
G|---------------------------------------------------|
D|-3333-3~5555-5~-000000--3333-3~5555-5~------000-0~-|
A|-3333-3~5555-5~-000000--3333-3~5555-5~------000-0~-|
D|-3333-3~5555-5~-000000--3333-3~5555-5~------000-0~-|
   xxxx   xxxx            xxxx   xxxx         xxx




Verse/Breakdown

Guitar 1
e|----------------------------------------------------------------------|
B|----------------------------------------------------------------------|
G|-22-2-----22-2--5555-777--22-2-----22-2--------22-2-----22-2----------|
D|-22-2-3-3-22-2--xxxx-xxx--22-2-3-3-22-2-0~-----22-2-3-3-22-2-0-0-(x2)-|
A|-00-0-3-3-00-0--3333-555--00-0-3-3-00-0-0~-----00-0-3-3-00-0-0-0------|
D|------3-3-------||||||||-------3-3------0~----------3-3------0-0------|
                  ||||||||
                  VVVVVVVV
Alternate Guitar (Harmonized Octave chords)
e|----------------------------|
B|----------------------------|
G|---------------10101010-999-|
D|----------------x-x-x-x-xxx-|
A|----------------8-8-8-8-777-|
D|----------------------------|


Verse/Breakdown cont.

Guitar 2
e|-12-------15--------12-------15-------12--12--------|
B|----13-12----1313------13-12---1313-----13--13-(x2)-|
G|----------------------------------------------------|
D|----------------------------------------------------|
A|----------------------------------------------------|
D|----------------------------------------------------|


Guitar 3
e|-------------------------------------------|
B|--1~~1~~1~~1~~1~~1~~1~~1~~3~~3~~3~~3~------|
G|-4~~4~~4~~4~~4~~4~~4~~4~~4~~4~~4~~4~~-(x2)-|
D|-------------------------------------------|
A|-------------------------------------------|
D|-------------------------------------------|






Pre-Breakdown Interlude
Guitar 1
e|------------------|
G|------------------|
B|------------------|
D|-0~~~~00000-00-00-|
A|-0~~~~00000-00-00-|
D|-0~~~~00000-00-00-|
        xxxxx-xx-xx



Breakdown (Let's shake things up!)
Guitar 1
e|---------------------------------------------------------------------|
B|---------------------------------------------------------------------|
G|---------------------------------------------------------------------|
D|-00000-00-00--00000000000-00-00------00000000000~00~00~-----00000000-|
A|-00000-00-00--00000000000-00-00-(x3)-00000000000~00~00~(x4)-00000000-|
D|-00000-00-00--00000000000-00-00------00000000000~00~00~-----00000000-|
   xxxxx xx xx  xxxxxxxxxxx xx xx      xxxxxxxxxxx xx xx      xxxxxxxx

Post-Breakdown Interlude
Guitar 1
e|----------------|
B|----------------|
G|-2~------2~-----|
D|-2~0~3~--2~5~3~-|
A|-0~0~3~--0~5~3~-|
D|---0~3~----5~3~-|

Guitar 2
e|---------000-7p00-8p00-5p00-3p0-5p0---0000-7p00-8p00-5p00-8-10-10-10-|
B|---------------------------------------------------------------------|
G|---------------------------------------------------------------------|
D|---------------------------------------------------------------------|
A|---------------------------------------------------------------------|
D|---------------------------------------------------------------------|






Chorus Altered
(add Guitar 2 pulloff riff from Post-Breakdown Interlude and remove Guitar 4

octave chords from Intro/Chorus)





Outro with "Solo"
Guitar 1 "Solo"
e|-----------------------------------|
B|-----------------------------------|
G|--5h7-7b-7b-7p5-------5h7-7-5------|
D|----------------7~-5-7---------7-5-|
A|-----------------------------------|
D|-----------------------------------|

"Solo" cont.
e|--------------------10101010-888-13131313-12121212-----------------------------15~-|
B|-8h10p8-101010-8888--------------------------------13131313-151515-131313----------|
G|-----------------------------------------------------------------------------------|
D|-----------------------------------------------------------------------------------|
A|-----------------------------------------------------------------------------------|
D|-----------------------------------------------------------------------------------|




Guitar 2
e|----------------------------------------------|
B|----------------------------------------------|
G|----------------------------------------------|
D|-3333-3~5555-5~-000000--3333-3~5555-5~-000-0~-|
A|-3333-3~5555-5~-000000--3333-3~5555-5~-000-0~-|
D|-3333-3~5555-5~-000000--3333-3~5555-5~-000-0~-|
   xxxx   xxxx            xxxx   xxxx    xxx
Suggest correction
What's this?
You can suggest a correction to this tab. Community and Mods will review your correction and vote to approve or reject it.
comments
We did not receive enough feedback on this tab! Please rate:
print report bad tab
1 2 3 4 5
guest
You may want to rate the tab now too:
select rating
Please do not post tabs as comments. Select "correction" instead!