Oops, an error
Loading. Please wait.

Once A Liar Always A Fake Tab

version 1
version 1

Whole song

Interactive

4,352 views 6 this week
1 commentread comment
1 2 3 4 5
excellent!
x 3
add to favorites
launch autoscroll
font size
0
reset
how to read this tab
guitar tuner
Tab Pro tools
  • play this tab
  • loop segment
  • change instrument
  • show fretboard
  • metronome
×
Best way to learn
"Once A Liar Always A Fake"
Autoscroll
slow
fast
+/-
esc
set tempo
stop
Contributor
Difficulty
Tuning
intermediate
B F# B E G# C#
Song: Once A Liar (Always A Fake)
Artist: For All Those Sleeping

Intro
C#|------------------------------------------------------------------------|
G#|------------------------------------------------------------------------|
E |-7-7-7-7-7-7-7-7--9-9-9-9-9-9-9-9--t-t-t-t-t-t-t-t--1212121212121212----|
B |-x-x-x-x-x-x-x-x--x-x-x-x-x-x-x-x--x-x-x-x-x-x-x-x--x-x-x-x-x-x-x-x---x2|
F#|-5-5-5-5-5-5-5-5--7-7-7-7-7-7-7-7--8-8-8-8-8-8-8-8--t-t-t-t-t-t-t-t-----|
B |------------------------------------------------------------------------|

Chorus
C#|------------------------------------------------------------------------|
G#|------------------------------------------------------------------------|
E |------------------------------------------------------------------------|
B |-0-0-0-0-0-0-0-0-0-0-0-0-0-0-0-0--5-5-5-5-5-5-5-5-5-5-5-5-5-5-5-5-------|
F#|-0-0-0-0-0-0-0-0-0-0-0-0-0-0-0-0--5-5-5-5-5-5-5-5-5-5-5-5-5-5-5-5-------|
B |-0-0-0-0-0-0-0-0-0-0-0-0-0-0-0-0--5-5-5-5-5-5-5-5-5-5-5-5-5-5-5-5-------|

C#|------------------------------------------------------------------------|
G#|------------------------------------------------------------------------|
E |------------------------------------------------------------------------|
B |-8-8-8-8-8-8-8-8-8-8-8-8-8-8-8-8--3-3-3-3-3-3-3-3--3-3-3-3-3-3-3-3---x2-|
F#|-8-8-8-8-8-8-8-8-8-8-8-8-8-8-8-8--3-3-3-3-3-3-3-3--2-2-2-2-2-2-2-2------|
B |-8-8-8-8-8-8-8-8-8-8-8-8-8-8-8-8--3-3-3-3-3-3-3-3--2-2-2-2-2-2-2-2------|

Verse
C#|------------------------------------------------------------------------|
G#|------------------------------------------------------------------------|
E |------------------------------------------------------------------------|
B |---------------------------------------------------------------------x2-|
F#|-0~-0--0-0-0-0-0---0-0-0--0--0---0--0---0--0--0-0-0-0-0---0-0-0--0--0---|
B |-0~-0--0-0-0-0-0---0-0-0--0--0---0--0---0--0--0-0-0-0-0---0-0-0--0--0---|
    .  .  . . . . .   . . .  .  .   .  .   .  .  . . . . .   . . .  .  .

   1st Ending             2nd Ending  
C#|-------------|     C#|-------------|
G#|-------------|     G#|-------------|
E |-------------|     E |-------------|
B |--------t----|     B |-------------|
F#|----7h8------|     F#|----th12pt---|
B |-------------|     B |-------------|

C#|-----------------------------------------------------------------------|
G#|-----------------------------------------------------------------------|
E |-----------------------------------------------------------------------|
B |-----------------------------------------------------------------------|
F#|-0--0-0-0-0-0-0--------------------------0-0--0--0-0-0-0-0-0---------0-|
B |-0--0-0-0-0-0-0--------------------------0-0--0--0-0-0-0-0-0---------0-|
    .  . . . . . .                          . .  .  . . . . . .         .

C#|-----------------------------------------------------------------------|
G#|-----------------------------------------------------------------------|
E |-----------------------------------------------------------------------|
B |-----------------------------------------------------------------------|
F#|-0--0-0-0-0-0-0----------------0-0--0--0-0-0-0-0-0---------0--0--0--0--|
B |-0--0-0-0-0-0-0----------------0-0--0--0-0-0-0-0-0---------0--0--0--0--|
    .  . . . . . .                . .  .  . . . . . .         .  .  .  .  
2nd Verse
C#|-------------------------------------------------------------------------
G#|------------------------------------------------------------------------|
E |-7-7-7-7-7-7-7-7-7-7-7-7-7-7-7-7--t-t-t-t-t-t-t-t-t-t-t-t-t-t-t-t-------|
B |-x-x-x-x-x-x-x-x-x-x-x-x-x-x-x-x--x-x-x-x-x-x-x-x-x-x-x-x-x-x-x-x-------|
F#|-5-5-5-5-5-5-5-5-5-5-5-5-5-5-5-5--8-8-8-8-8-8-8-8-8-8-8-8-8-8-8-8-------|
B |------------------------------------------------------------------------|

C#|------------------------------------------------------------------------|
G#|------------------------------------------------------------------------|
E |-1212121212121212121212121212-t-t-t-t-t-t-t-t--9-9-9-9-9-9-9-9----------|
B |-x-x-x-x-x-x-x-x-x-x-x-x-x-x--x-x-x-x-x-x-x-x--x-x-x-x-x-x-x-x---x2-----|
F#|-t-t-t-t-t-t-t-t-t-t-t-t-t-t--8-8-8-8-8-8-8-8--7-7-7-7-7-7-7-7----------|
B |------------------------------------------------------------------------|

Chorus

End of Chorus
C#|-------------------|
G#|-------------------|
E |-------------------|
B |-0~0~~0~~~~~~~~~---|
F#|-0~0~~0~~~~~~~~~---|
B |-0~0~~0~~~~~~~~~---|

Breakdowm 1

C#|------------------------------------------------------------------------|
G#|------------------------------------------------------------------------|
E |------------------------------------------------------------------------|
B |------------------------------------------------*This is fast---x2------|
F#|------0~-0~~----0~-0~-0~~----0~-0~-0~~----0~-0~-0-0--0-0----------------|
B |------1~-1~~----1~-1~-1~~----1~-1~-1~~----1~-1~-1-1--1-1----------------|
         .  .      .  .  .      .  .  .      .  .  . .  . .

Breakdown 2
C#|------------------------------------------------------------------------|
G#|------------------------------------------------------------------------|
E |------------------------------------------------------------------------|
B |-------------------------------------------------------------------x2---|
F#|-0-0--0-0----0-0--0-0--0-0----0--0--0-0--0-0----0-0--0--0---0--0--------|
B |-0-0--0-0----0-0--0-0--0-0----0--0--0-0--0-0----0-0--0--0---0--0--------|
    . .  . .    . .  . .  . .    .  .  . .  . .    . .  .  .   .  .

C#|--------------------|
G#|--------------------|
E |--------------------|
B |--------------------|
F#|--------------------|
B |---7---3---0---1----|

Bridge x1

Chorus 

C#|------------------------------------------------------------------------|
G#|------------------------------------------------------------------------|
E |------------------------------------------------------------------------|
B |-0~~~~~~~~~~~~~~~~~~~~~~~~~~~~~~~~~~~~~~~~~~~~~~~~~~~~~~~~~~~~~~~~~~~---|
F#|-0~~~~~~~~~~~~~~~~~~~~~~~~~~~~~~~~~~~~~~~~~~~~~~~~~~~~~~~~~~~~~~~~~~~---|
B |-0~~~~~~~~~~~~~~~~~~~~~~~~~~~~~~~~~~~~~~~~~~~~~~~~~~~~~~~~~~~~~~~~~~~---|

3:17
Breakdown 3

C#|------------------------------------------------------------|
G#|------------------------------------------------------------|
E |------------------------------------------------------------|
B |-------------------------------------------------------x2---|
F#|-----0-0~~--0-0-0~~-0-0~~--0-0~~--0-0-0~~-0-0-0~~~----------|
B |-----1-1~~--1-1-1~~-1-1~~--1-1~~--1-1-1~~-1-1-1~~~----------|
        . .    . . .   . .    . .    . . .   . . .
C#|------------------------------------------------------------|
G#|------------------------------------------------------------|
E |------------------------------------------------------------|
B |--------------------------------------------------x2--------|
F#|-----0-0----0-0-0---0-0----0-0----0-0-0---0-0-0-------------|
B |-----0-0----0-0-0---0-0----0-0----0-0-0---0-0-0-------------|
        . .    . . .   . .    . .    . . .   . . .

End.
Key:
t=10
.=Palm mute
~=let ring
h=hammer on
p=pull off
comments
We did not receive enough feedback on this tab! Please rate:
print report bad tab
1 2 3 4 5
1 comment total.
0 reply
ckleber wrote on August 17 2012, 03:02 pm

you say bridge x1 but you don't have a bridge so . . . explain? ha. its a good tab tho. I'll give it 4 stars.

I want to post or [tab]
guest
You may want to rate the tab now too:
select rating
Please do not post tabs as comments. Select "correction" instead!