Oops, an error
Loading. Please wait.

Brothers In Arms Tab

version 3
version 3

Whole song

Interactive

1,834 views 1 this week
no commentswrite comment
1 2 3 4 5
please rate
add to favorites
launch autoscroll
font size
0
reset
how to read this tab
guitar tuner
Autoscroll
slow
fast
+/-
esc
set tempo
stop
Help us to improve Ultimate-Guitar.com Take our survey!
×
Difficulty
Tuning
intermediate
A# F A# D# G C
For the Fallen Dreams
Brothers In Arm
Changes 2008

tabbed by: Atimidgentleman
e-mail: unicornoflife@gmail.com

Tyler Rosier originally did this tab, but had a few things tabbed wrong heres  the 
way to play it.

Tuning: Drop A#

|--6-----------------------------6----------6---|
|-10-------------------------------10----10-----|
|-10----------------------------------10--------|
|--0--------------------------------------------| x2
|--0------(000000-0--0--0--0)-------------------|
|--0------(000000-0--0--0--0)-------------------|
           x x xxxx x  x  x  x

^let ring^
|--6---------------6-------------6----------------8--------6--------6-----|
|--10--------------10------------10-----------------10-------10-------10--|
|--10--------------10------------10--------------------10-------10--------|
|--0---------------0-------------0----------------------------------------|
|--0---------------0-------------0----------------------------------------|
|--0---0000-0-0-00-0--000000-0-0-0---0000-0-0-000-------------------------|
       xxxx x x xx    xxxxxx x x     xxxx x x xxx

^let ring^

|--6---------------------------------|
|--10--------------------------------|
|--10--------------------------------|
|--0-------Drum Fill-----------------|
|--0---------------------------------|
|--0---------------------------------|

hold


|--6----------6--6-----6------6--------6-----------6--6--5h6p5-0-0--------|
|--6----------10-10-----10-----10------10----------10-10--------6-6-------|
|--10---------10-10-------10-----10----10----------10-10------------5-----|
|--0----------0--0---------------------0-----------0--0---------------7---|
|--0----------0--0---------------------0-----------0--0-------------------|
|--0--000-0-0-0--0---------------------0--000-0-0--0--0-------------------|
      xxx x x                             xxx x x

                        ^let ring^                          ^let ring^

|-------------------------------------------------|
|-------------------------------------------------|
|--------------------5/7---7/9/10\9-----------\5--|
|-------------------------------------------------| x4
|--0-----------------3/5---5/7/8 \7-----------\3--|
|--0-0-0-0-0-0-0-0-0-----0------------------------|
     x x x x x x x x     x

you'll have to figure out the strumming of this im wayyy too lazy to tab it out.

Breakdown
|--------------------------------------------------|
|--------------------------------------------------|
|--------------------------------------------------|
|--------------------------------------------------| x2
|-------------------------------------------1-1-0--|
|--0-0-0-0-000-0-0-0-0-0-000-0-0-0-0-0-000--1-1-0--|
   x x x x xxx x x x x x xxx x x x x x xxx

|------------------------------------------------|
|------------------------------------------------|
|------------------------------------------------|
|------------------------------------------------| x2
|-------------------1-1--------------------------|
|--1^-0-0-0-0-0-0-0-1-1-0-0-0-0-0-0-3-1-0-1-3-4--|
      x x x x x x x       x x x x x

|---------------------6--------6-------6------|
|-----------------------10-------10------10---|
|--------------------------10-------10--------|
|---------------------------------------------|
|---------------------------------------------|
|--1^-0-0-0-0-0-0-0---------------------------|
        x x x x x x

|--6---------------6-------------6----------------8--------6--------6-----|
|--10--------------10------------10-----------------10-------10-------10--|
|--10--------------10------------10--------------------10-------10--------|
|--0---------------0-------------0----------------------------------------|
|--0---------------0-------------0----------------------------------------|
|--0---0000-0-0-00-0--000000-0-0-0---0000-0-0-000-------------------------|
       xxxx x x xx    xxxxxx x x     xxxx x x xxx

|--6-----------|
|--10----------|
|--10----------|
|--0-----------|
|--0-----------|
|--0-----------|
Suggest correction
Give kudos to tab author, rate the tab!
1 2 3 4 5
comments
print report bad tab
guest
You may want to rate the tab now too:
select rating
Wanna post a correction for this tab? Suggest correction