Oops, an error
Loading. Please wait.

Brothers In Arms Tab

version 4
version 4

Whole song

Interactive

10,524 views 1 this week
5 commentsread comments
1 2 3 4 5
x 4
add to favorites
launch autoscroll
font size
0
reset
how to read this tab
guitar tuner
Autoscroll
slow
fast
+/-
esc
set tempo
stop
Help us to improve Ultimate-Guitar.com Take our survey!
×
Author
Brothers in Arms
For the Fallen Dreams


C |--------------------------------------------------------------------------------|
G |-----------11--------------11----------------------------11--------------11-----|
D#|--14-----------14------14--------------14--------------------14------14------14-|
a#|--15---------------15------------------15------------------------15-------------|
F |--12-----------------------------------12--0000000-0-0--------------------------|
A#|--0------------------------------------0---0000000-0-0--------------------------|
                                                        ....... . .
                                                                               x4
C |------------------------------------------------------------------------------|------|
G |------------------------------------------------------13-------11-------11----|------|
D#|--14-------------14-----------------14-------------------14-------14-------14-|---14-|
a#|--15-------------15-----------------15----------------------15-------15-------|---15-|
F |--12--00000-0000-12--0000000-0-0000-12-00000-000-0----------------------------|---12-|
A#|------00000-0000-----0000000-0-0000----00000-000-0----------------------------|------|
         ..... ....     ....... . ....    ..... ... .           play this after the 4th time^^^


C |----------------------------------------------------------------------------------|
G |------------------11---------11-----------------------------11h13p11--------------|
D#|--14---------14-14----14---------14------14---------14-14------------14-----------|
a#|--15---------15-15--------15---------15--15---------15-15---------------15-14-----|x2
F |--12-0-0-0-0-12-12-----------------------12-0-0-0-0-12-12---------------------15--|
A#|-----0-0-0-0--------------------------------0-0-0-0-------------------------------|
        . . . .                                . . . .

                                                                                   x2
C |----------------------------------------------------------------------------------|---|
G |------------------11---------11-----------------------------11h13p11--------------|-14|
D#|--14---------14-14----14---------14------14---------14-14------------14-----------|-15|
a#|--15---------15-15--------15---------15--15---------15-15---------------15-14-----|-12|
F |--12-0000000-12-12-----------------------12-0000000-12-12---------------------15--|---|
A#|-----0000000--------------------------------0000000-------------------------------|---|
        .......                                .......


C |-----------------------------------------------------------|
G |-----------------------------------------------------------|
D#|----5/7-7/9/10\9-99-99999-5555555--------------------------|
a#|----x/x-x/x/x-\x-xx-xxxxx-xxxxxxx--------------------------|
F |----3/5-5/7/8-\7-77-77777-3333333--------------------------|
A#|-----------------------------------00-0-0-0----------------|
    

C |--------------------------------------------------------------|
G |--------------------------------------------------------------|
D#|----5/7-7/9/10\9-99-99999-5555555-----------------------------|
a#|----x/x-x/x/x-\x-xx-xxxxx-xxxxxxx-----0-----------------------|
F |----3/5-5/7/8-\7-77-77777-3333333-----0-0000000---------------|
A#|--------------------------------------0-0000000-0-0-0-0-------|
                                           ....... . . . .

C |------------------------------------------------------------------|
G |------------------------------------------------------------------|
D#|----5/7-7/9/10\9-99-99999-5555555------------5/7-7/9/10\9~\5~-----|
a#|----x/x-x/x/x-\x-xx-xxxxx-xxxxxxx------------x/x-x/x/x-\x~\x~-----|
F |----3/5-5/7/8-\7-77-77777-3333333------------3/5-5/7/8-\7~\3~-----|
A#|------------------------------------00-0-0-0----------------------|






C |-----------------------------------------------------------------------|
G |-----------------------------------------------------------------------|
D#|-----------------------------------------------------------------------|
a#|-0---------------------------------------------------------------------|   X2
F |-0-0000000----------000-000---------0000000---------000-000-0-0-0------|
A#|-0-0000000—0-0-0-0--000-000-0-0-0-0-0000000-0-0-0-0-000-000-1-1-1------|
      ....... . . . .  ... ... . . . . ....... . . . . ... ... . . . 

C |----------------------------------------------------------------------|---------------|
G |----------------------------------------------------------------------|---------------|
D#|----------------------------------------------------------------------|---------------|
a#|-0---------------------------------------------------------------X2---|---------------|
F |-0-0-0-0-0-0-0-0-0-0-0-0-0-0-0-0-0-0-0-0-0-0--------------------------|-0-0-0-0-0-0-0-|
A#|-0-0-0-0-0-0-0-0-0-0-0-0-0-1-1-0-0-0-0-0-0-0-0-3-5-0-1-3-0-1*---------|-0-0-0-0-0-0-0-|
      . . . . . . . . . . . .     . . . . . . .                            . . . . . . .

C |--------------------------------------|
G |-13-------11-------11-----------------|
D#|----14-------14-------14--------------|
a#|-------15-------15-------15-----------|
F |--------------------------------------|
A#|--------------------------------------|

C |------------------------------------------------------------------------------|------|
G |------------------------------------------------------13-------11-------11----|------|
D#|--14-------------14-----------------14-------------------14-------14-------14-|---14-|
a#|--15-------------15-----------------15----------------------15-------15-------|---15-|
F |--12--00000-0000-12--0000000-0-0000-12-00000-000-0----------------------------|---12-|
A#|------00000-0000-----0000000-0-0000----00000-000-0----------------------------|------|
         ..... ....     ....... . ....    ..... ... .           play this after the 4th time^^^
Suggest correction
comments
print report bad tab
5 comments total. Showing first comments.
+1 reply
blything09 20 May 29, 2009 09:51 AM

great tab mate except theres a few small errors

This part

C |----------------------------------------------------------------------|---------------|
G |----------------------------------------------------------------------|---------------|
D#|----------------------------------------------------------------------|---------------|
a#|-0---------------------------------------------------------------X2---|---------------|
F |-0-0-0-0-0-0-0-0-0-0-0-0-0-0-0-0-0-0-0-0-0-0--------------------------|-0-0-0-0-0-0-0-|
A#|-0-0-0-0-0-0-0-0-0-0-0-0-0-1-1-0-0-0-0-0-0-0-0-3-5-0-1-3-0-1*---------|-0-0-0-0-0-0-0-|
. . . . . . . . . . . . . . . . . . . . . . . . . .

is suppose to be:

C |----------------------------------------------------------------------|---------------|
G |----------------------------------------------------------------------|---------------|
D#|----------------------------------------------------------------------|---------------|
a#|-0---------------------------------------------------------------X2---|---------------|
F |-0-0-0-0-0-0-0-0-0-0-0-0-0-0-1-1-0-0-0-0-0-0--------------------------|-0-0-0-0-0-0-0-|
A#|-0-0-0-0-0-0-0-0-0-0-0-0-0-0-0-0-0-0-0-0-0-0-0-3-4-0-1-3-0-1---------|-0-0-0-0-0-0-0-|
. . . . . . . . . . . . . . . . . . . . . . . . . .

other than that its perfect thanks

0 reply
Vandals572 131 Dec 26, 2009 09:08 AM

thanks, I would fix it but I dont know how lol

0 reply
d e c o d e d 10 Mar 25, 2012 03:02 PM

C |----------------------------------------------------------------------|---------------|
G |----------------------------------------------------------------------|---------------|
D#|----------------------------------------------------------------------|---------------|
a#|-0---------------------------------------------------------------X2---|---------------|
F |-0-0-0-0-0-0-0-0-0-0-0-0-0-0-1-1-0-0-0-0-0-0--------------------------|-0-0-0-0-0-0-0-|
A#|-0-0-0-0-0-0-0-0-0-0-0-0-0-0-0-0-0-0-0-0-0-0-0-3-1-0-1-3-0-1---------|-0-0-0-0-0-0-0-|

^^ thats better.

guest
You may want to rate the tab now too:
select rating
Wanna post a correction for this tab? Suggest correction