Oops, an error
Loading. Please wait.

Complicate The Situation tab

13 views 1 this week
no commentswrite comment
1 2 3 4 5
3 more votes to show rating
add to favorites
×
Save as Personal and add changes to this tab that will be seen only by you. Learn more ›
×
You can save this tab as Personal to edit and correct it or add notes. All changes will be seen only by you. Learn more »
launch autoscroll
font size
0
reset
how to read this tab
guitar tuner
edit
Autoscroll
slow
fast
+/-
esc
set tempo
stop
For the Fallen Dreams - Complicate the Situation
Tabbed by: Jacob Jancik
https://www.youtube.com/watch?v=z7eJ-ljGf8I
Tuning: Drop A#

[Intro] (00:00)
C |------------------------------------------------------------------------------------------|
G |------------------------------------------------------------------------------------------|
D#|------------------------------------------------------------------------------------------|
A#|---8-----5-----7-----3-----5--2-3---------------------------------------------------------|
F |---8-----5-----7-----3-----5--2-3---------------------------------------------------------|
A#|---8-0-0-5-0-0-7-0-0-3-0-0-5--2-3---------------------------------------------------------|
        * *   * *   * *   * *

C |----------------------------------------|----------------------------------------------------|
G |----------------------------------------|----------------------------------------------------|
D#|----------------------------10-10-10-10-|----------------------------------------------------|
A#|---0-0-0-0-0-0-0-0-8-8-8-8--x--x--x--x--|--0-0-0-0-0-0-0-0--8-----5-----7-----3-----5--2-3---|
F |---0-0-0-0-0-0-0-0-8-8-8-8--8--8--8--8--|--0-0-0-0-0-0-0-0--8-----5-----7-----3-----5--2-3---|
A#|---0-0-0-0-0-0-0-0-8-8-8-8--x--x--x--x--|--0-0-0-0-0-0-0-0--8-0-0-5-0-0-7-0-0-3-0-0-5--2-3---|
                                                                 * *   * *   * *   * *

C |----------------------------------------|----------------------------------------------------|
G |----------------------------------------|----------------------------------------------------|
D#|----------------------------10-10-10-10-|----------------------------------------------------|
A#|---0-0-0-0-0-0-0-0-8-8-8-8--x--x--x--x--|--0-0-0-0-0-0-0-0--8-----5-----7-----3-----5--2-3---|
F |---0-0-0-0-0-0-0-0-8-8-8-8--8--8--8--8--|--0-0-0-0-0-0-0-0--8-----5-----7-----3-----5--2-3---|
A#|---0-0-0-0-0-0-0-0-8-8-8-8--x--x--x--x--|--0-0-0-0-0-0-0-0--8-0-0-5-0-0-7-0-0-3-0-0-5--2-3---|
                                                                 * *   * *   * *   * *

C |------------------------------------------------------------------------------------------|
G |------------------------------------------------------------------------------------------|
D#|------------------------------------------------------------------------------------------|
A#|---8-----5-----7-----3-----5--2-3---------------------------------------------------------|
F |---8-----5-----7-----3-----5--2-3---------------------------------------------------------|
A#|---8-0-0-5-0-0-7-0-0-3-0-0-5--2-3---------------------------------------------------------|
        * *   * *   * *   * *

[Pre-chorus] (00:28)                                                                                        x2
C |---------------------------------------------------------------------------------------------------------|
G |---------------------------------------------------------------------------------------------------------|
D#|---------------------------------------------------------------------------------------------------------|
A#|--------------------------------------------1-1-1-1--------------------------------------------4-3-1-0---|
F |--------------------------------------------1-1-1-1--------------------------------------------4-3-1-0---|
A#|---6p0-0--0--0-6p0-0-6p0-0-6p0--0--0--0-6p0-1-1-1-1--6p0-0--0--0-6p0-0-6p0-0-6p0--0--0--0-6p0--4-3-1-0---|
                                               * * * *                                            * * * *

Chugs (00:51 - 00:56)


[Chorus] (00:57)
C |---------------------------------------------------------------------------|
G |---------------------------------------------------------------------------|
D#|---------------------------------------------------------------------------|
A#|--0---------8----------10-8-0---------5------------------------------------|
F |--0---------8----------10-8-0---------5------------------------------------|
A#|--0---------8----------10-8-0---------5------------------------------------|

C |------------------------------------------17-14-15-12-14-10----------------------------------------------|
G |--/22-19-20-17-19-15---19-15-17-14-15-12---------------------19-15-17-14-15-12-----14-15-----------------|
D#|-----------------------------------------------------------------------------------------b15-------------|
A#|---------------------------------------------------------------------------------------------------------|
F |---------------------------------------------------------------------------------------------------------|
A#|---------------------------------------------------------------------------------------------------------|

Chugs (01:19 - 01:41)

C |---------------------------------------------------------------------------|
G |---------------------------------------------------------------------------|
D#|---------------------------------------------------------------------------|
A#|---8-----5-----7-----3-----5-5---------------------------------------------|
F |---8-----5-----7-----3-----5-5---------------------------------------------|
A#|---8-0-0-5-0-0-7-0-0-3-0-0-5-5---------------------------------------------|
        * *   * *   * *   * * * *

Chugs (01:45 - 01:50)

C |---------------------------------------------------------------------------|
G |---------------------------------------------------------------------------|
D#|---------------------------------------------------------------------------|
A#|---8-----5-----7-----3-----5-5---------------------------------------------|
F |---8-----5-----7-----3-----5-5---------------------------------------------|
A#|---8-0-0-5-0-0-7-0-0-3-0-0-5-5---------------------------------------------|
        * *   * *   * *   * * * *

[Chorus] (01:53)
C |---------------------------------------------------------------------------|
G |---------------------------------------------------------------------------|
D#|---------------------------------------------------------------------------|
A#|--0---------8----------10-8-0---------5------------------------------------|
F |--0---------8----------10-8-0---------5------------------------------------|
A#|--0---------8----------10-8-0---------5------------------------------------|

C |------------------------------------------17-14-15-12-14-10----------------------------------------------|
G |--/22-19-20-17-19-15---19-15-17-14-15-12---------------------19-15-17-14-15-12-----14-15-----------------|
D#|-----------------------------------------------------------------------------------------b15-------------|
A#|---------------------------------------------------------------------------------------------------------|
F |---------------------------------------------------------------------------------------------------------|
A#|---------------------------------------------------------------------------------------------------------|

C |---------------------------------------------------------------------------| x4
G |---------------------------------------------------------------------------|
D#|---------------------------------------------------------------------------|
A#|---8-----5-----7-----3-----5-5---------------------------------------------|
F |---8-----5-----7-----3-----5-5---------------------------------------------|
A#|---8-0-0-5-0-0-7-0-0-3-0-0-5-5---------------------------------------------|
        * *   * *   * *   * * * *

[Chugs] (02:24 - 02:35)

C |---------------------------------------------------------------------------| x2
G |---------------------------------------------------------------------------|
D#|---------------------------------------------------------------------------|
A#|---------------------------------------------------------------------------|
F |---------------------------------------------------------------------------|
A#|--12p0--12p0---0-0-0-0---12p0--12p0--12-12-12-13-13-13-13------------------|
                  * * * *

[Bridge] (02:47)
C |---------------------------|-------------------------------------|---------------------------------------|
G |---------------------------|-------------------------------------|---------------------------------------|
D#|--10-------15-------14-----|------10-------15-------14----9------|------10-------15-------14-------------|
A#|--x--------x--------x------|------x--------x--------x-----x------|------x--------x--------x--------------|
F |--8--------13-------12-----|------8--------13-------12----7------|------8--------13-------12-------------|
A#|--x--------x--------x------|------x--------x--------x-----x------|------x--------x--------x--------------|

C |---------------------------------------------------------------------------|
G |---------------------------------------------------------------------------|
D#|--10---------12---------14---------17---9----------------------------------|
A#|--x----------x----------x----------x----x----------------------------------|
F |--8----------10---------12---------15---7----------------------------------|
A#|--x----------x----------x----------x----x----------------------------------|

(03:10)                                                                                                     x2
C |---------------------------------------------------------------------------------------------------------|
G |---------------------------------------------------------------------------------------------------------|
D#|---------------------------------------------------------------------------------------------------------|
A#|--------------------------------------------1-1-1-1--------------------------------------------4-3-1-0---|
F |--------------------------------------------1-1-1-1--------------------------------------------4-3-1-0---|
A#|---6p0-0--0--0-6p0-0-6p0-0-6p0--0--0--0-6p0-1-1-1-1--6p0-0--0--0-6p0-0-6p0-0-6p0--0--0--0-6p0--4-3-1-0---|
                                               * * * *                                            * * * *
[Outro] (03:32)
C |---------------------------------------------------------------------------|
G |---------------------------------------------------------------------------|
D#|---------------------------------------------------------------------------|
A#|---8-----5-----7-----3-----5--2-3------------------------------------------|
F |---8-----5-----7-----3-----5--2-3------------------------------------------|
A#|---8-0-0-5-0-0-7-0-0-3-0-0-5--2-3------------------------------------------|
        * *   * *   * *   * *
C |---------------------------------------------------------------------------|
G |---------------------------------------------------------------------------|
D#|---------------------------------------------------------------------------|
A#|---8-----5-----7-----3-----5-5---------------------------------------------|
F |---8-----5-----7-----3-----5-5---------------------------------------------|
A#|---8-0-0-5-0-0-7-0-0-3-0-0-5-5---------------------------------------------|
        * *   * *   * *   * *


************************************

| x  Dead note
| p  Pull-off
| /  Slide up
| b  Bend
| *  palm muting

************************************
Suggest correction
Creating personal tab
Creating personal tab
You can edit any tab online and save it as your Personal.

You can edit, replace or remove any tab part or add personal notes – all changes will be seen only by you.

Personal tabs can be accessed anytime from any device, even offline.
Learn more »
Give kudos to tab author, rate the tab!
1 2 3 4 5
comments
print report bad tab
guest
You may want to rate the tab now too:
select rating
Wanna post a correction for this tab? Suggest correction