Oops, an error
Loading. Please wait.

Agape Bass Tab

version 1
version 1

Whole song

Interactive

1,347 views 1 this week
no commentswrite comment
1 2 3 4 5
3 more votes to show rating
add to favorites
launch autoscroll
font size
0
reset
guitar tuner
Autoscroll
slow
fast
+/-
esc
set tempo
stop
Help us to improve Ultimate-Guitar.com Take our survey!
×
Author
Tuning
C G C F A D
For Today-Agape
Bass Tabs

These are the REAL bass tabs... I've heard it about a billion times, but if you have any
corrections or suggestions, then email mhackeronearth@gmail.com. Thanks :D


F|---------------------|-----------------------------------------------------------------|
C|---------------------|-----------------------------------------------------------------|
G|---------------------|----------------------------------(these are elevens and twelves)|
C|----0--0000-0000--0--|---0---8--11-7--8-8-8-2--88888888-1111111111111111-12121212-2--2-|
PM    .  .... ....  .

F|-----------------------------------------------------------|
C|-----------------------------------------------------------|
G|-----------------------------------------------------------|
C|--0--8--11-7--8-8-8-2--8888888888888888-1111111111111111-12|

F|---------------------------------------------------|
C|---------------------------------------------------|x6
G|---------------------------------------------------|
C|-0000-0000-0000-00000000-0000-0000-0-0000-00000000-|
PM .... .... .... ........ .... .... . .... ........

F|-------|
C|-------|
G|-------|
C|--0--0-|

F|------------------------------------------------------------| \
C|------------------------------------------------------------|  \
G|-----------13---12------------------------------------------|   \
C|-5--8--0-0----0----0-11-0-12-0-12-15-14--0000000--8-00-7-7-0|    \
PM         .    .    .    .                .......    ..            |
                                                                    |
F|---------------------------------------------------------|        |--x2
C|-------------------------11------------------------------|        |
G|---13---12------------------13-12----------10----10-10---|        |
C|-0----0----0-11-0-12-0------------0000000-----00-------12|        | 
PM .    .    .    .                 .......     ..                /
                                                                   /
F|--------------------------------------------------|             /
C|--------------------------------------------------|            /
G|------13---12-------------------------------------|           /
C|--0-0----0----0-11-0-12-0-12-15-14--00000000000000|          /
PM    .    .    .    .                ..............

F|--------------------------------------------------------|
C|--------------------------------------------------------|
G|------13---12-------------------------------------------|
C|--0-0----0----0-11-0-12-0-12-15-14--00000000000000--5--8|
PM    .    .    .    .                ..............

F|-----------|
C|-----------|
G|--0--5-5554|
C|-----------|

F|--------|
C|--------|
G|--------|x10
C|-0--3--5|
 (listen for pattern)

F|---------------------------------|
C|---------------------------------|
G|---------------------------------|
C|-000-000-0-0000-000-0-7-3-2-7-3-2|
PM ... ... . .... ... .

F|-----------------------------------------------|  \
C|-----------------------------------------------|   \
G|-----------------------------------------------|    \
C|-00000-000-00-0-00-0-0-0-0000-000-0-7-3-2-7-3-2|     |
PM ..... ... .. . .. . . . .... ... .                  |
                                                       |----x3
F|-----------------------------------|                /
C|-----------------------------------|               /
G|-----------------------------------|              /
C|-000-0000-0000000-000-0-7-3-2-7-3-2|             /

F|-----------------|
C|-----------------|
G|-----------------|
C|--8--5--7-4-1---0|
PM                . 

The rest is pretty simple...
Suggest correction
Give kudos to tab author, rate the tab!
1 2 3 4 5
comments
print report bad tab
guest
You may want to rate the tab now too:
select rating
Wanna post a correction for this tab? Suggest correction