Oops, an error
Loading. Please wait.

Agape Tab

version 2
version 2

Whole song

Interactive

4,410 views 3 this week
1 commentread comment
1 2 3 4 5
please rate
add to favorites
launch autoscroll
font size
0
reset
how to read this tab
guitar tuner
Tab Pro tools
  • play this tab
  • loop segment
  • change instrument
  • show fretboard
  • metronome
×
Best way to learn
"Agape"
Autoscroll
slow
fast
+/-
esc
set tempo
stop
Contributor
-------------------------------------------------------------------------------
                             Agape (Uh-Gah-Pay) - For Today
-------------------------------------------------------------------------------

Email: xokeefex@hotmail.com

Tuning: Drop C

I noticed with the other tab that there were a few awkward parts, so I took the liberty 
cleaning them up.
Corrections/Suggestions appreciated :]


0:00-0:02
D|-------------------|
A|-------------------|
F|-------------------|
C|-0--0000--0000--0--|
G|-0--0000--0000--0--|
C|-0--0000--0000--0--|
   .  ....  ....  .


0:02-0:22
D|------------13h17p13--------------------------------10h13p10--------12h15p12--------9h12p9-------|
A|---------15----------15--------------------------11----------11--------------13------------10----|
F|------14----------------14--------------------10----------------10--------------12------------9--|
C|---15----------------------15~-------------12----------------------------------------------------|
G|17--------------------------------------13-------------------------------------------------------|
C|-------------------------------------------------------------------------------------------------|

D|---------------------------------------------------------6h9p6--------------------|
A|-------------------------------------------------6-------------8-6---------8--10~-|
F|-10--12--14--------------------------6-7-9-7-6-----9-7-6-----------9-7-6-7--------|
C|-------------14--12--11--------5-7-8-----------8----------------------------------|
G|-------------------------5-7-8----------------------------------------------------|
C|----------------------------------------------------------------------------------|

D|------------13h17p13--------------------------------10h13p10--------12h15p12--------9h12p9-------|
A|---------15----------15--------------------------11----------11--------------13------------10----|
F|------14----------------14--------------------10----------------10--------------12------------9--|
C|---15----------------------15~-------------12----------------------------------------------------|
G|17--------------------------------------13-------------------------------------------------------|
C|-------------------------------------------------------------------------------------------------|

D|-------------------------------------------------6h9p6----------------|
A|---------15--14--------------------------6-------------8-6------------|
F|-10--12----------------------6-7-9-7-6-----9-7-6-----------9-7-6-7-7--|
C|-----------------------5-7-8-----------8------------------------------|
G|-----------------5-7-8------------------------------------------------|
C|----------------------------------------------------------------------|


0:22-0:58
D|------------------------------------------------------------------|
A|------------------------------------------------------------------|
F|------------------------------------------------------------------|
C|------------------------------------------------------------------| x2
G|--0000--0000------0000--00000000--0000--0000--0---0000--00000000--|
C|--0000--0000------0000--00000000--0000--0000--0---0000--00000000--|
    ....  ....      ....  ........  ....  ....  .   ....  ........


D|-------13-17--------13-17--------13-17--------------13h17p13-----------|-|
A|----15-----------15-----------15-----------------15----------15--------| |
F|-14-----------14-----------14-----------------14----------------14-----| |
C|-------------------------------------------15--------------------------| |
G|----------------------------------------17-----------------------------| |
C|-----------------------------------------------------------------------| |
                                                                           |
D|-------13-17--------13-17------------13-17--------------13h17p13-------|x3
A|----15-----------15--------15-----15-----------------15----------15----|-|
F|-14-----------14---------------14-----------------14----------------14-|-|
C|-----------------------------------------------15----------------------|-|
G|--------------------------------------------17-------------------------|-|
C|-----------------------------------------------------------------------|-|


0:56-1:43
D|-------------------------------------------------|
A|--------------------------------------11-13-15~--|
F|-------------------12-14-15~---------------------|
C|-0--0-------------------------11--15-------------|
G|-0--0---12'13--17--------------------------------|
C|-0--0--------------------------------------------|

D|------------------------------------------------------------------|----|
A|------------------------------------------------------------------|    |
F|------------------------------------------------------------------|    |
C|-0~---13-12----------------7---5~-----------------5------5---7----|    |
G|-0~----------7---8-----8------------------------------------------|    |
C|-0~--0--0--0---0---0-0---0---0-----0-0-0-0-0-0-0-----0-0---0---0--|    |
       .  .  .   .   . .   .   .     . . . . . . .     . .   .   .       |
                                                                         |
D|-----------------------------------------------------------------|     |
A|-----------------------------------------------------------------|     |
F|-----------------------------------------------------------------|     |
C|-0~---13-12-----------11-12-11~-----------------5------5---7-----|     |
G|-0~----------7---8-----------------------------------------------|     x2
C|-0~--0--0--0---0---0-0--0--0------0-0-0-0-0-0-0-----0-0---0---0--|     |
       .  .  .   .   . .  . .       . . . . . . .     . .   .   .        |
                                                                         |
D|----------------------------------------------------------------|      |
A|----------------------------------------------------------------|      |
F|----------------------------------------------------------------|      |
C|-0~---13-12----------------7---5~-------------------------------|      |
G|-0~----------7---8-----8----------------------------------------|      |
C|-0~--0--0--0---0---0-0---0---0-----0-0-0-0-0-0-0-0-0-0-0-0-0-0--|      |
       .  .  .   .   . .   .   .     . . . . . . . . . . . . . .         |
                                                                         |
D|------------------------------------------|                            |
A|-------------------------------11-13-15~--|                            |
F|------------12-14-15~---------------------|                            |
C|-----------------------11--15-------------|                            |
G|-12'13--17--------------------------------|                            |
C|------------------------------------------|----------------------------|

D|----------------------------------------------------------------|
A|----------------------------------------------------------------|
F|----------------------------------------------------------------|
C|-0~---13-12----------------7---5~-------------------------------|
G|-0~----------7---8-----8----------------------------------------|
C|-0~--0--0--0---0---0-0---0---0-----0-0-0-0-0-0-0-0-0-0-0-0-0-0--|
       .  .  .   .   . .   .   .     . . . . . . . . . . . . . .

D|------------------------------------------|
A|-------------------------------11-13-15~--|
F|------------12-14-15~---------------------|
C|-----------------------11--15-------------|
G|-12'13--17--------------------------------|
C|------------------------------------------|


1:43-2:38
D|-------------------------------|
A|---------8---------------------|
F|----9h10---10p9-7--------------|
C|-0----------------8----12*-11--|
G|-0-----------------------------|
C|-0-----------------------------|

D|-----------------------------------------------------------|
A|-----------------------------------------------------------|
F|-----------------------------------------------------------|
C|----7*-8*-11*-----11*-12*-14*-----12*-14*-15*-14*-12*-11\--|x10
G|-8*-----------12*-------------13*--------------------------|
C|-----------------------------------------------------------|


2:38-3:28
D|----------------------------------------------|
A|----------------------------------------------|
F|----------------------------------------------|
C|----------------------------7--3--2--7--3--2--|
G|-000-000-00000-----000-0----7--3--2--7--3--2--|
C|-000-000-00000-----000-0----7--3--2--7--3--2--|
   ... ... .....     ... .

D|----------------------------------|-------------|
A|----------------------------------|             |
F|----------------------------------|             |
C|----------------------------------|             |
G|-00000-----000-0-0--0--0-0--0--0--|             |
C|-00000-----000-0-0--0--0-0--0--0--|             |
   .....     ... . .  .  . .  .  .                |
                                                  |
D|----------------------------------|             |
A|----------------------------------|             |
F|----------------------------------|             |
C|----------------7--3--2--7--3--2--|             x2
G|-0-0000--000-0--7--3--2--7--3--2--|             |
C|-0-0000--000-0--7--3--2--7--3--2--|             |
   . ....  ... .                                  |
                                                  |
D|----------------------------------------------| |
A|----------------------------------------------| |
F|----------------------------------------------| |
C|----------------------------7--3--2--7--3--2--| |
G|-000--0000-0000000---000-0--7--3--2--7--3--2--| |
C|-000--0000-0000000---000-0--7--3--2--7--3--2--|-|
   ...  .... .......   ... .

D|----------------------------------|
A|----------------------------------|
F|----------------------------------|
C|----------------------------------|
G|-00000-----000-0-0--0--0-0--0--0--|
C|-00000-----000-0-0--0--0-0--0--0--|
   .....     ... . .  .  . .  .  .

D|----------------------------------|
A|----------------------------------|
F|----------------------------------|
C|----------------7--3--2--7--3--2--|
G|-0-0000--000-0--7--3--2--7--3--2--|
C|-0-0000--000-0--7--3--2--7--3--2--|
   . ....  ... .

D|--------------------------------|
A|--------------------------------|
F|--------------------------------|
C|-----------------------------0--|
G|-------------3---------------0--|
C|-8~----5~-------7--4~~~------0--|
                               .

3:28-end
Should be easy enough to figure out yourself. The whole part is basically made up 
of the triplet rhythm.

| /  slide up
| \  slide down
| h  hammer-on
| p  pull-off
| ~  vibrato
| +  harmonic
| x  Mute note
| '  Grace Note (leads into next note)
| *  Tremelo

===============================================================================
comments
We did not receive enough feedback on this tab! Please rate:
print report bad tab
1 2 3 4 5
1 comment total.
0 reply
xtommyguntim wrote on March 12 2009, 08:27 pm

That does fix some of the things i was unsure about, except...

the top of those sweeps, 13h19p13, the only notes that sound wrong in the whole song are the 19s... anyways, awesome job!

I want to post or [tab]
guest
You may want to rate the tab now too:
select rating
Please do not post tabs as comments. Select "correction" instead!