Oops, an error
Loading. Please wait.

Benedictus Song Of Zechariah Tab

version 2
version 2

Whole song

Interactive

3,219 views 6 this week
1 commentread comment
1 2 3 4 5
please rate
add to favorites
launch autoscroll
font size
0
reset
how to read this tab
guitar tuner
Autoscroll
slow
fast
+/-
esc
set tempo
stop
Help us to improve Ultimate-Guitar.com Take our survey!
×
Author
Drop D Tuning
Hope this works. Enjoy.

Intro (clean guitar)
|--------------------------|
|------6-----------8-------|
|--------------------------|
|----6----6-----8-----8----|
|-4----------6-------------|
|--------------------------|

|-------------------11p8---------------|
|-------------8h9--------11p9--8h9-----|
|--------8-----------------------------| 
|----10----10--------------------------| 
|-8------------------------------------|
|--------------------------------------|


Variation on the last 2 before the solo

|----------------------|
|------6-------9--8----|
|----------------------|
|---6----6---8---------| 
|-4--------6-----------|
|----------------------|

Solo
|----------------------------------|
|----------------------------------|
|-/13-12----/13-12-----------------|
|-------------------8--6-5-6--13T--|
|--------15------------------------|
|----------------------------------|


|----------------------------------------------------------------|
|----------------------------------------------------------------|
|-/13-12----/13-12---------------------------------8/10--8-10-12-|
|------------------8--6-5-6-----------6------6-8-----------------|
|--------15-------------------8--6-8------8----------------------|
|----------------------------------------------------------------|

|----------------------------------|
|----------------------------------|
|-/13-12----/13-12-----------------|
|-------------------8--6-5-6--13T--|
|--------15------------------------|
|----------------------------------|


|------------------11-13-15-16-18-16-18b-18-|
|-------------------------------------------|
|-/13-12----/12-13--------------------------|
|-------------------------------------------|
|--------15---------------------------------|
|-------------------------------------------|


|-13--11-13-11---------------------|
|---------------11-9---------------|
|---------------------10-10-8------|
|------------------------------8-6-|
|----------------------------------|
|----------------------------------|


|-------------------------|
|-------------------------|
|-------------------------|
|---------------1---1-3---|
|-----------1-3---3-------|
|-7-7-8--7-8--------------|


|--------------------------------------------------------------|
|-/6-4-8-8-8h9p8-----------------------------------------------|
|---------------------10p8-10p8------------------8-----8-10-12-|
|--------------------------------8--6-----6-8-10----10---------|
|--------------------------------------8-----------------------|
|--------------------------------------------------------------|

|-------------|
|-------------|
|-13b^^-13b---|
|-------------|
|-------------|


|-/13-11--/15-13---15h16h18p16p15-----------------------------------|
|---------------------------------16--------------------------------|
|------------------------------------15h17p15--12h13p12-------------|
|-------------------------------------------------------13----------|
|----------------------------------------------------------13-11----|
|----------------------------------------------------------------15-|


|-15b----15b------------------------|
|-----13------11-9--8h9-16T-----3nh-|
|-----------------------------------|
|-----------------------------------|
|-----------------------------------|
|-----------------------------------|
Suggest correction
Give kudos to tab author, rate the tab!
1 2 3 4 5
comments
print report bad tab
1 comment total.
0 reply
bricefallsfast 107 wrote on September 29 2009, 10:45 am

they play in drop c

guest
You may want to rate the tab now too:
select rating
Please do not post tabs as comments. Select "correction" instead!