Oops, an error
Loading. Please wait.

Benedictus Song Of Zechariah Tab

version 3
version 3

Whole song

Interactive

613 views 3 this week
1 commentread comment
1 2 3 4 5
please rate
add to favorites
launch autoscroll
font size
0
reset
how to read this tab
guitar tuner
Autoscroll
slow
fast
+/-
esc
set tempo
stop
Help us to improve Ultimate-Guitar.com Take our survey!
×
Author
Difficulty
Tuning
intermediate
C G C G C E
                                 
                                  Benedictus (Song of Zechariah) - For Today


Tabbed by: John Stubblefield (stubbs08_09)
Email: stubblefield.john0809@gmail.com

Tuning: Drop C 

  Guitar 1 clean w/delay
   Intro
D|------------------------------------------13p10---------------|
A|------8---------10------------------10h11-------13p11-10h11---|
F|-----------------------------10-------------------------------|
C|---8-----8---10----10-----12----12----------------------------|
G|-6---------8-----------10-------------------------------------|
C|--------------------------------------------------------------|


D|-------------------13p10---------------|
A|-------------10h11-------13p11-10h11---|
F|-------10------------------------------| x5
C|----12----12---------------------------|
G|-10------------------------------------|
C|---------------------------------------|

   0:50
D|----------------------------------------------13p10---------------|
A|------8----------10/11-10---------------10h11-------13p11-10h11---|
F|---------------------------------10-------------------------------|
C|---8-----8---10---------------12----12----------------------------|
G|-6---------8---------------10-------------------------------------|
C|------------------------------------------------------------------|


D|-------------------13p10---------------|
A|-------------10h11-------13p11-10h11---|
F|-------10------------------------------| x2
C|----12----12---------------------------|
G|-10------------------------------------|
C|---------------------------------------|

 Guitar 2 distorted w/delay (Guitar 1 continues to play intro throughout the song)
   1:09      ph
D|---------------------------------|
A|---------------------------------|
F|-/15\14----15-14-----------/10---|
C|--------12--------10\8-7/8-------|
G|---------------------------------|
C|---------------------------------|

   1:19
D|----------------------------------------------------------------|
A|----------------------------------------------------------------|
F|-/15\14----15-14-----------------3---3/5/10-10/12-10/12h14------|
C|--------12--------10\8-7/8-5-3-5---5----------------------------|
G|----------------------------------------------------------------|
C|----------------------------------------------------------------|

   1:29
D|-----------------------------------------|
A|-----------------------------------------|
F|-14b(15)r14----14b(15)r14----------/10---|
C|------------12------------10\8-7/8-------|
G|-----------------------------------------|
C|-----------------------------------------|

   1:39
D|-----------------13-15-17-18-20-18-20b-19hb---|
A|----------------------------------------------|
F|-/15\14----14-15------------------------------|
C|--------12------------------------------------|
G|----------------------------------------------|
C|----------------------------------------------|

   1:54
D|-------------------------------------------------|
A|-18/20-18-18/20-18-------------------------------|
F|-------------------17-15-------------------------|
C|-------------------------17-15/17-15\12----------|
G|----------------------------------------15~\-----|
C|-------------------------------------------------|

   1:59
D|---------------------------------------------------------------------|
A|---------------------------------------------------------------------|
F|------------------------/12-10-14-14-14-14b(15)r14p12\10h12p10-------|
C|---------------3---3/5-----------------------------------------12----|
G|-----1---1/3-5---5---------------------------------------------------|
C|-5-5---5-------------------------------------------------------------|

   2:06
D|-----------------------------------------|
A|-----------------------------------------|
F|--------------10----10/12/14-16br-15hb---|
C|-8----8/10-12----12----------------------|
G|---10------------------------------------|
C|-----------------------------------------|

   2:14
D|-15-13-17-15-17h18h2p18p17----------------------------------|
A|---------------------------18-------------------------------|
F|------------------------------17h19p17-14h15h14-------------|
C|-----------------------------------------------15-----------|
G|-------------------------------------------------15\13------|
C|-------------------------------------------------------17---|


   2:19                                      prebend
D|-17b(18)r17----17b(18)r17-------------13---24br---|   I'm not sure about the last
A|------------15------------13\11-10/11-------------|   note so I just bend the highest
F|--------------------------------------------------|   note on my guitar.
C|--------------------------------------------------|
G|--------------------------------------------------|
C|--------------------------------------------------|


| b   bend (whole step unless otherwise indicated)
| hb  half bend 
| r   return
| /   slide up
| \   slide down
| h   hammer-on
| p   pull-off
| ~   vibrato
| ph  pinch harmonic
| nh  natural harmonic
Suggest correction new What's this?
You can suggest a correction to this tab. Community and Mods will review your correction and vote to approve or reject it.
comments
We did not receive enough feedback on this tab! Please rate:
print report bad tab
1 2 3 4 5
1 comment total.
0 reply
Alpha_Wolf 1,061 wrote on November 18 2010, 12:41 am

Fun fact: One of the guitarists (can't remember which one) from Between The Buried And Me played the solo on this track.

guest
You may want to rate the tab now too:
select rating
Please do not post tabs as comments. Select "correction" instead!