Oops, an error
Loading. Please wait.

Devastator Bass Tab

version 1
version 1

Whole song

Interactive

3,582 views 3 this week
no commentswrite comment
1 2 3 4 5
please rate
add to favorites
launch autoscroll
font size
0
reset
guitar tuner
Autoscroll
slow
fast
+/-
esc
set tempo
stop
Help us to improve Ultimate-Guitar.com Take our survey!
×
Author
Difficulty
Tuning
intermediate
C G C F A D
For Today - Devastator (Bass)

INTRO (guitar first)

    <
F|----------------|
C|--1-------------|
G|--0-------------|
C|--1-------------|

F|----------------|----------------|
C|----------------|----------------|
G|----------------|----------------|
C|-1--1-----------|----------------| 8x

    <
F|----------------|
C|--1-------------|
G|--0-------------|
C|--1-------------|

F|----------------|----------------|----------------|----------------|
C|----------------|----------------|----------------|----------------|
G|----------------|---1--------5---|----------------|----------------|
C|-0---0-0---0---0|-0----4-3-4-----|----0-0------0-0|-------1--1--1--|

F|----------------|----------------|----------------|----------------|
C|----------------|----------------|----------------|----------------|
G|----------------|---1--------5---|----------------|----------------|
C|-0---0-0---0---0|-0----4-3-4-----|----0-0------0-0|-8--8--8-4--4--4|

F|----------------|----------------|----------------|----------------|
C|----------------|----------------|----------------|----------------|
G|----------------|---1--------5---|----------------|----------------|
C|-0---0-0---0---0|-0----4-3-4-----|----0-0------0-0|-------1--1--1--|

F|----------------|----------------|----------------|----------------|
C|----------------|----------------|----------------|----------------|
G|----------------|----------------|----------------|----------------|
C|-8--8--8-4--4--4|-7--7--7-3--3--3|-8--8--8-4--4--4|-7--7--7-3--3--3|

                           ^                             ^     \
F|-----------------------------|-----------------------------|  \ 
C|-----------------------------|-----------------------------|  |
G|-----------------------------|-----------------------------|  |
C|-0-0-0-0-0-0-5-0-4-0-0-0-4---|-8-8-8-8-8-8-7-7-7-7-7-7-7---|  |
                                                                |  2x
                           ^                             ^      |
F|-----------------------------|-----------------------------|  |
C|-----------------------------|-----------------------------|  |
G|-----------------------------|-----------------------------|  /
C|-0-0-0-0-0-0-5-0-4-0-0-0-4---|-5-5-5-5-5-5-5-5-7-7-7-7-7---| / 


F|-----------------------------|-----------------------------| \
C|-----------------------------|-----------------------------|  \
G|-----------------------------|-------------------5---------|  |
C|-1-0-0-0-0-0-0-0-4----0-0-0-0|---0----0----0---0----0-0-0-0|  |
                                                                |  2x
F|-----------------------------|-----------------------------|  |
C|-----------------------------|-----------------------------|  |
G|-----------------------------|-------------------6---------|  /
C|-1-0-0-0-0-0-0-0-4----0-0-0-0|---0----0----0---0----0-0-0-0| /

F|--------------------------------|--------------------------------|
C|-5-5-5-5-8-8-8-8-5-5-5-5-8-8-8-8|-5-5-5-5-8-8-8-8-5-5-5-5-8-8-8-8|
G|--------------------------------|--------------------------------|
C|--------------------------------|--------------------------------|

F|-----------------------|
C|-5-5-5-5-5-5-5-5-8-----|
G|-----------------------|
C|--------------------0--|

F|------------|---------|-------------------|------------------------|
C|------------|---------|-------------------|------------------------|
G|------------|---------|-------------------|------------------------|
C|--1---------|---------|--0----------------|-----------0------------|

F|-----------------------------|-----------------------------|
C|-----------------------------|-----------------------------|
G|-----------------------------|----6-----6--5---------------|
C|-1--0--0--5--4---0-0-0-0-0-0-|-0-----0---------0-0-0-0-0-0-| 3x

F|-----------------------------|-----------------------------|
C|-----------------------------|-----------------------------|
G|-----------------------------|----6-----6--5---------------|
C|-1--0--0--5--4---0-0-0-0-0-0-|-0-----0---------------------|

F|------------------------|------------------------|
C|------------------------|------------------------|
G|------------------------|------------------------|
C|-1--0--0--5--4--0--0--0-|-0--1--0--5--4--0--0--0-| 2x

F|------------------------|------------------------|
C|------------------------|------------------------|
G|------------------------|------------------------|
C|-0---0-0-0-0-----0-0-0--|-----1---1---1---1---1--|

F|------------------------|------------------------|
C|------------------------|------------------------|
G|------------------------|------------------------|
C|-0---------------0---0--|-0----------0-0-0-0-0---|

F|------------------------|------------------------|
C|------------------------|------------------------|
G|------------------------|------------------------|
C|--0---------------------|------------0---0---0-0-|

F|--------------|----------------|--------------|--------------------|
C|--------------|----------------|--------------|--------------------|
G|---6----------|----------------|---6----------|--------------------|
C|-------7---8--|-4-----5--4--1--|-------7---8--|-4-----0---0---0-0--| 4x

F|----------------|----------------|
C|----------------|----------------|
G|----------------|----------------|
C|-1--1-----------|----------------| 4x

F|------------|--------------------|
C|------------|--------------------|
G|------------|--------------------|
C|-1--1-------|--0---0-0-0---0--0--|

F|------------|------------------|------------|----|
C|------------|------------------|------------|----|
G|------------|------------------|------------|----|
C|-1--1-------|---5--4--1--0--4--|-1--1-------|----|

F|----------------|--------------------------|
C|----------------|--------------------------|
G|----------------|--------------------------|
C|-1--1-----0-0-0-|-0---0-0-0---0-0-0-0-0-0-0|

F|------------|--------------------|------------|------------------|
C|------------|--------------------|------------|------------------|
G|------------|--------------------|------------|------------------|
C|-1--1-------|--0---0-0-0---0--0--|-1--1-------|---5--4--1--0--4--|

F|------------|----------------|
C|------------|----------------|
G|------------|----------------|
C|-1--1-------|----------------|

F|----------------|--------------------------|------------|
C|----------------|--------------------------|------------|
G|----------------|--------------------------|------------|
C|-1--1-----0-0-0-|-0---0-0-0---0-0-0-0-0-0-0|-1--1-------|
Suggest correction
What's this?
You can suggest a correction to this tab. Community and Mods will review your correction and vote to approve or reject it.
comments
We did not receive enough feedback on this tab! Please rate:
print report bad tab
1 2 3 4 5
guest
You may want to rate the tab now too:
select rating
Please do not post tabs as comments. Select "correction" instead!