Oops, an error
Loading. Please wait.

Elijah The Forerunner Tab

version 2
version 2

Whole song

Interactive

982 views 1 this week
no commentswrite comment
1 2 3 4 5
excellent!
x 2
add to favorites
launch autoscroll
font size
0
reset
how to read this tab
guitar tuner
Tab Pro tools
  • play this tab
  • loop segment
  • change instrument
  • show fretboard
  • metronome
Autoscroll
slow
fast
+/-
esc
set tempo
stop
Contributor
Difficulty
Tuning
intermediate
C G C F A D
I know that this song is 100% correct because the guitarist from for today (Mike) 
gave them to me! so enjoy!

D-----------------------------------------------------------------|
A----------------------8h10---------10-10-10-8-8-8----------------|
F-----------------9h10------------------------------9-9h10--------|
C---------8h11h12-------------------------------------------------|
G-8h10h12---------------------------------------------------------|
C----------------------------000000------------------------000000-|



D------------------------------------------|
A----------------------8h10----------------|
F-----------------9h10---------------------|
C---------8h11h12-------------------5~-----|
G-8h10h12-------------------------------7~-|
C----------------------------000000--------|




then ring out open on build up to i call down fire 

play this pattern twice through


D------------------------|
A------------------------|
F------------------------|
C------------------------|
G-000---00-000--000--0-0-|
C-000---00-000--000--0-0-|



then come in with the harmonies



D-----------|
A-----------|
F-----------|
C-----------|
G-8h10---7~-|
C------8----|



D------------------------|-----------------------------------|
A------------------------|-------- ---------------------------|
F------------------------|-----------------------------------|
C--------------------2-2-|-----------------------------------|
G-000---00-000--000--1-1-|-0-00000--000-000--000-00--000-000-|
C-000---00-000--000--2-2-|-0-00000--000-000--000-00--000-000-|




transition into tremelo riff ringing out until that cymbal mute. then hit 8



D--------------|
A--------------|
F--------------|
C--------------|
G-0---------8--|
C-0---------8--|




D------------------------------------|
A-14-11-14-15-14-11----------11------|
F-------------------14-12-10----10-9-|
C------------------------------------|
G------------------------------------|
C------------------------------------|




last time through ends like this



D-------------------------------|
A-14-11-14-15-14-11----------17-|
F-------------------14-12-10----|
C-------------------------------|
G-------------------------------|
C-------------------------------|



D------------------------------------|
A-14-11-14-15-14-11----------11------|
F-------------------14-12-10----10-9-|
C------------------------------------|
G------------------------------------|
C------------------------------------|



then you play this



D------------------------------|
A------------------------------|
F--------9--------------9------|
C-7-8-11---11-8--7-8-11---11-8-|
G------------------------------|
C------------------------------|



you keep playing it and ryan comes in with harmonies

cuts off for 4 beats, then the fast riff



D-------------------------------------------------------------------------------|
A---14-11h14p11-----------------------------------------------------------------|
F---------------14p12------------------12---------------------------------14-12-|
C---------------------14/15---11h12h14----14--14p12---12-----12p9---9-----------|
G-------------------------------------------------------------------------------|
C-0-------------------------0-----------------------0-----00------0----00-------|



D-------------------------------------------------------------------------------|
A---14-11h14p11--------------------------------------------------------------14-|
F---------------14p12------------------12---------------------------------15----|
C---------------------14/15---11h12h14----14--14p12---12-----12p9---9-----------|
G-------------------------------------------------------------------------------|
C-0-------------------------0-----------------------0-----00------0----00-------|




during sweeps your part is this



D------------|
A------------|
F------------|
C-7--------3-|
G-4--------1-|
C------------|




then back into the riff, next sweeping part is this



D---------------------------------6-5-|
A-------------------------------------|
F-------------------------------------|
C-7--------3---------2----------------|
G-4--------1---------0--------4-------|
C-----------------------------2-------|




D--------------------------|
A----------------------11--|
F-----------------8h10-----|
C------------8h12----------|
G-------8h12---------------|
C-0-0-0--------------------|



D--------------10------------------------|
A--------------11------------------------|
F--------------10------------------------|
C--------------12------------------------|
G-0-0-0-000000-10-0-0-00-0000-000-0000-0-|
C-0-0-0-000000----0-0-00-0000-000-0000-0-|




D-------------------------------10--------|
A-------------------------------11--------|
F-------------------------------10--------|
C-------------------------------12--------|
G-0-0-0-000000-0-0-0-00-0000-00-10-0000-0-|
C-0-0-0-000000-0-0-0-00-0000-00----0000-0-|



D----------------------------------------|
A----------------------------------------|
F----------------------------------------|
C----------------------------------------|
G-0-0-0-000000-0-0-0-00-0000-00-0-0000-0-|
C-0-0-0-000000-0-0-0-00-0000-00-0-0000-0-|



D---------------------------------------------------|
A----------------------11---------------------------|
F-----------------8h10------------------------------|
C------------8h12-----------------------------------|
G-0-0-0-8h12--------------0-0-0-00-0000-00-0-0000-0-|
C-0-0-0-------------------0-0-0-00-0000-00-0-0000-0-|




AND THAT'S IT
comments
We did not receive enough feedback on this tab! Please rate:
print report bad tab
1 2 3 4 5
I want to post or [tab]
guest
You may want to rate the tab now too:
select rating
Please do not post tabs as comments. Select "correction" instead!