Oops, an error
Loading. Please wait.

Ezekiel The Visionary Bass Tab

2,102 views 1 this week
no commentswrite comment
1 2 3 4 5
please rate
add to favorites
launch autoscroll
font size
0
reset
guitar tuner
Tab Pro tools
  • play this tab
  • loop segment
  • change instrument
  • show fretboard
  • metronome
×
Best way to learn
"Ezekiel The Visionary"
Autoscroll
slow
fast
+/-
esc
set tempo
stop
Contributor
Difficulty
Tuning
intermediate
C G C F A D
Bass tab for Ezekiel by For Today from the album Portraits
Drop C tuning
Tabbed by me so just email any problems to serenamillers@hotmail.com
But hopefully there aren't any :)

Intro
F|---------------|
C|---------------|
G|---------------|
C|--3-2-0-0-0----|
    An army approaches...             

F|--------------------------------------------------|
C|--------------------------------------------------|
G|--------------------------------------------------|
C|--3\0-0-0----00-2-6-0----00-2-6-0--0-0-000-000000-|
Only do the slide once, after it's just the same as the first bit

F|----------------------------------------------------|
C|----------------------------------------------------|
G|----------------------------------------------------| x3
C|--3-2-0-0-0----00-2-6-0----00-2-6-0--0-0-000-000000-|

Finish with
F|---------------|
C|---------------|
G|---------------|
C|--3----2-------|

Verse
F|------------------------------------|
C|------------------------------------| }
G|------------------------------------| }
C|--7-77777777777777-6-66666666666666-| }
                                        } x4
F|------------------------------------| }
C|------------------------------------| }
G|------------------------------------| }
C|--7-77777777777777-3-3333335-555555-|

Next part in verse
F|----------------------------------------|
C|----------------------------------------| 
G|----------------------------------------| x3
C|--3-3-333--2-22-2222--7-7-777-6-66-6666-| 

F|--------------------------------------------------|
C|--------------------------------------------------| 
G|--------------------------------------------------| 
C|--3-3-333--2-22-2222--6-6-6666-7777-9999-66666666-|

F|---------------|
C|---------------|
G|---------------|
C|--4-3-1-0-1----|

Breakdown
  F|------------------------------|
* C|------------------------------|
* G|------------------------------|
  C|--0000-000000----0000-000000--|

F|----------------------------------------------|
C|----------------------------------------------| *  
G|----------------0-3-5-----------------0-3-5\--| *  x2
C|--0-3-6---0-3-6----------0-3-6--0-3-6---------|

Play the above twice then follow into the next repeat
which ends differently without a slide

F|------------------------------|
C|------------------------------|
G|------------------------------|
C|--0000-000000----0000-000000--|

F|-------------------------------------------------------|
C|-------------------------------------------------------|  
G|----------------0-3-5-----------------0-3-5--2---------|
C|--0-3-6---0-3-6----------0-3-6--0-3-6-----------6--3--2|

Then the guitar plays the first bit of the breakdown until the bass drop
  F|------------------------------|
 *C|------------------------------|
 *G|------------------------------|
  C|--2~~-------------------------|
Let the 2 ring for 4 bars while the guitar continues at that pitch
I will not be afraid.... for i am a chosen one of god
Then bass plays the next part
F|-------------------------------|
C|-------------------------------|*
G|-------------------------------|* x2
C|--00-000-0-0-0000-00-00-0-0000-|

Then repeat the bass drop on 2nd fret ^^^ (held again for 4 bars)
And follow into the open C breakdown part and end with:

F|------------------|
C|------------------|
G|------------------|
C|--7-0-6-77--6606--|

F|------------------------|
C|------------------------|
G|------------------------| x2
C|--7-0-3-2~----3-0-6-7~--|

F|--------------------------------------------|
C|--------------------------------------------|
G|--------------------------------------------| x4
C|--7-0-3-2--0000000--3-0-6-7--000-000-000-00-|
 
After the 4th play 
F|---------------------|
C|---------------------|
G|---------------------|
C|--3~~----5~-55555555-|
Let the 3 ring for a while but with the 5 let it ring for a bit
but start strumming it for maybe the last 2 bars or so

Ending softer part
F|-------------------------------------|
C|-------------------------------------|
G|--3333333333333333-------------------| x4
C|-------------------3333333355555555--|

End after the 4th play on
F|-------|
C|-------|
G|-------|
C|--7~~--|
Just let this ring for as long as it will since the note gets carried
through into Isiah (The Willing)

Thanks and i hope it helps!
Wes
comments
We did not receive enough feedback on this tab! Please rate:
print report bad tab
1 2 3 4 5
I want to post or [tab]
guest
You may want to rate the tab now too:
select rating
Please do not post tabs as comments. Select "correction" instead!