Oops, an error
Loading. Please wait.

Immanuel The Challenger Tab

version 1
version 1

Whole song

Interactive

3,444 views 1 this week
4 commentsread comments
1 2 3 4 5
2 more votes to show rating
add to favorites
launch autoscroll
font size
0
reset
how to read this tab
guitar tuner
×
Best way to learn
"Immanuel The Challenger"
Autoscroll
slow
fast
+/-
esc
set tempo
stop
This breakdown is stupid complicated and changes tempo. Its all open chords but its 
technical. Ill tab the other part before it, though.
If you want to see a video on how to play the rhythm for the breakdown check out this 
http://www.youtube.com/watch?v=39gMLpvEoSw

The best way to figure out the rhythm to the breakdown is watch my hands in that video 
just listen to the breakdown a lot.
I listened to it probably 50+ times before i got it.
Listen to it and try to get the beat in your head before you play it on guitar.

(In Triplets)
D|----------------------------------------------------------|
A|----------------------------------------------------------|
F|---7--7--7----------6--6--6----------------------6--6--6--|
C|-----------------------------------8--8--8----------------|
G|---5--5--5----------4--4--4--------8--8--8-------4--4--4--|
C|-----------------------------------8--8--8----------------|

(repeat above)
D|---------------------------------------------------------------------------------|
A|---------------------------------------------------------------------------------|
F|---------------------------------------------------------------------------------|
C|----8----8-------11--------------------------------------------------------------|
G|----8----8-------11--------------------------------------------------------------|
C|----8----8-------11--------------------------------------------------------------|
Suggest correction
Give kudos to tab author, rate the tab!
1 2 3 4 5
comments
print report bad tab
4 comments total. Showing first comments.
0 reply
Zao_89 884 Jun 13, 2009 11:35 AM

The breakdown does not change tempo. Time signatures, I'm sure, but not tempo.

0 reply
Arjunx1 10 Jun 24, 2009 08:24 AM

Your tab is a mix of the two guitars.
D|----------------------------------------------------------|
A|----------------------------------------------------------|
F|---7--7--7----------6--6--6-------------------------------|
C|-----------------------------------8--8--8-------7--7--7--|
G|---5--5--5----------4--4--4--------8--8--8-------7--7--7--|
C|-----------------------------------8--8--8-------7--7--7--|
That is one of them, i'm not sure how to play the other.

0 reply
piginacanoe212 40 Jun 24, 2009 10:04 PM

Yeah, I just went back up the scale instead of going down.
No big.

Working on tabbing the sweep

guest
You may want to rate the tab now too:
select rating
Wanna post a correction for this tab? Suggest correction