Oops, an error
Loading. Please wait.

Isaiah The Willing Tab

version 3
version 3

Intro

Whole song

Interactive

1,148 views 1 this week
1 commentread comment
1 2 3 4 5
excellent!
x 2
add to favorites
launch autoscroll
font size
0
reset
how to read this tab
guitar tuner
Tab Pro tools
  • play this tab
  • loop segment
  • change instrument
  • show fretboard
  • metronome
Autoscroll
slow
fast
+/-
esc
set tempo
stop
Contributor
Difficulty
Tuning
intermediate
C G C F A D
This is a tab of Isaiah (The Willing) by For today.
I'm not sure if it's 100% accurate but I think it's at least
close enough. I hope this helps someone, enjoy!

KEY:
* = Palm Mute
~ = Hold Out Note
x = Mute String
b = Bend
brb = Bend Release Bend

(0:00 - 0:58) Guitar 1
D|-10~--------10~----------------|
A|----11~--------11~---------11~-|
F|-------14~--------14~---14~----|
C|---------------------12~-------|
G|-------------------------------|
C|-------------------------------|x4
 |
D|-13~--------13~----------------|
A|----11~--------11~---------11~-|
F|-------14~--------14~---14~----|
C|---------------------12~-------|
G|-------------------------------|
C|-------------------------------|x2
 |
D|-10~--------10~----------------|
A|----11~--------11~---------11~-|
F|-------14~--------14~---14~----|
C|---------------------12~-------|
G|-------------------------------|
C|-------------------------------|x2
 |
 |Guitar 2 comes in with this at 0:29 and Guitar 1 joins in at 0:58
 |and plays until 1:12
D|---------------------------------------------------|
A|---------------------------------------------------|
F|---------------------------------------------------|
C|-000-0---00-000---000-00-0-0-0---0000000-00-0000-0-|
G|-000-0---00-000---000-00-0-0-0---0000000-00-0000-0-|Guitar 2 x6
C|-000-0---00-000---000-00-0-0-0---0000000-00-0000-0-|Guitar 1 x2
   *** *   ** ***   *** ** * * *   ******* ** **** *

(1:13 - 1:17)
D|---------------|
A|---------------|
F|---------------|
C|---------------|
G|-5~--4~--5~-4~-|
C|-3~--7~--3~-2~-|x2

(1:17 - 1:46) Guitar 1
D|-----------------------------------------|
A|-----------------------------------------|
F|-----------------------------------------|
C|---8-7--8-7--8~---8~---------------------|
G|---------------12~--12~-x3-5~--4~--5~-4~-|
C|-00-0-00-0-00--------------3~--7~--3~-2~-|x3
 | ** * ** * **
 |
 |Guitar 2 comes in the second time with this
D|-----------------------------------------------|
A|-----------------------------------------------|
F|-----------------------------------------------|
C|---12-11--12-11--12~---12~---------------------|
G|--------------------16~---16~-x3-5~--4~--5~-4~-|
C|-00--0--00--0--00----------------3~--7~--3~-2~-|x2
   **  *  **  *  **

(1:46 - 1:49)
D|-------------------|
A|-------------------|
F|-------------------|
C|-0---0-0-0--0~---0-|
G|-0---0-0-0--0~---0-|
C|-0---0-0-0--0~---0-|
   *   * * *  *    *

THIS IS THE END OF THE WORLD!

(1:51 - 2:23)
D|---------------------------------------17brb----------|
A|---------------------------------------------18-17brb-|
F|------------------------------------------------------|
C|------------------------------------------------------|
G|----11-1----11-1-------11-1----11-1-------------------|
C|-1b-22-2----22-2----1b-22-2----22-2-------------------|x2
      ** *    ** *       ** *    ** *

(2:23 - 3:11)
(I'm not tabbing the rhythm through this part but it's not hard to figure out)
D|-------------------|------|
A|-------------------|------|
F|-7-9-10-6-7-9-10-6-|-6----|
C|-x-x--x-x-x-x--x-x-|-x----|
G|-5-7--8-4-5-7--8-4-|-4-x3-|
C|-------------------|------|
 |
D|-----------------------|
A|-----------------------|
F|-7-9-10-6-7-9-10-12-14-|
C|-x-x--x-x-x-x--x--x--x-|
G|-5-7--8-4-5-7--8-10-12-|
C|-----------------------|x2
 |
D|-------------------------------------------------------|
A|-------------------------------------------------------|
F|-10-9-10-12-14-10-9-10-12-10-10-9-10-12-14-10-9-10-9-7-|
C|--x-x--x--x--x--x-x--x--x--x--x-x--x--x--x--x-x--x-x-x-|
G|--8-7--8-10-12--8-7--8-10--8--8-7--8-10-12--8-7--8-7-5-|
C|-------------------------------------------------------|

(3:11 - 3:25)
D|---------------|
A|---------------|
F|---------------|
C|-0~------------|
G|-0~----5~--4~--|
C|-0~----8~--7~--|x4

(3:25 - 3:46) Guitar 1
D|---------------------------|
A|---------------------------|
F|-------------------------7-|
C|---8-7-------------7-------|
G|-0-----5-0-000-0-----0-4---|
C|-0-------0-000-0-8---0-----|x6
 | *       * *** *     *
 |
 |Guitar 2 comes in with this on the third time
D|--------------------------------|
A|--------------------------------|
F|--------------------------------|
C|---12-11-------------11------15-|
G|-0-------8-0-000-0------0-------|
C|-0---------0-000-0-8----0-11----|x4
   *         * *** *      *

(3:46 - 3:54)
D|--------------------|-------|
A|--------------------|-------|
F|--------------------|-------|
C|-0---0-000-0---0----|-0~----|
G|-0---0-000-0---0----|-0~----|
C|-0---0-000-0---0-x2-|-0~----|
   *   * *** *   *
comments
We did not receive enough feedback on this tab! Please rate:
print report bad tab
1 2 3 4 5
1 comment total.
0 reply
SWAGPelican wrote on December 24 2012, 08:22 pm

Best tab I've seen for this song. Thank you so much!

I want to post or [tab]
guest
You may want to rate the tab now too:
select rating
Please do not post tabs as comments. Select "correction" instead!