Oops, an error
Loading. Please wait.

Isaiah The Willing Tab

version 4
version 4

Whole song

Interactive

228 views 1 this week
no commentswrite comment
1 2 3 4 5
please rate
add to favorites
launch autoscroll
font size
0
reset
how to read this tab
guitar tuner
Tab Pro tools
  • play this tab
  • loop segment
  • change instrument
  • show fretboard
  • metronome
×
Best way to learn
"Isaiah The Willing"
Autoscroll
slow
fast
+/-
esc
set tempo
stop
Contributor
Difficulty
Tuning
intermediate
C G C F A D
Isaiah The Willing
by For Today
Drop C tunning(CGCFAD)low to high

intro Clean w/ delay (4x) (0:00-0:28)
D-10-(10)-----------10-(10)----------------------------------|
A-------11-(11)-----------11-(11)-----------------11-(11)----|
F-------------14-(14)-----------14-(14)-----14-(14)----------|
C-------------------------------------12-(12)----------------|
G------------------------------------------------------------|
C------------------------------------------------------------|

(0:29-0:57) (x2)
D-13-(13)---------13-(13)------------------------------------|
A-------11-(11)---------11-(11)-----------------11-(11)------|
F-------------14-(14)---------14-(14)-----14-(14)------------|
C-----------------------------------12-(12)------------------|
G------------------------------------------------------------|
C------------------------------------------------------------|

(0:44-0:58) (2x)
D-10-(10)-----------10-(10)----------------------------------|
A-------11-(11)-----------11-(11)-----------------11-(11)----|
F-------------14-(14)-----------14-(14)-----14-(14)----------|
C-------------------------------------12-(12)----------------|
G------------------------------------------------------------|
C------------------------------------------------------------|


1st Breakdown (00:14) Guitar 1 comes in at 0:58
D-|-------|-----------------------------------|
A-|*-----*|-----------------------------------|
F-|-------|-----------------------------------|
C-|--0~---|-2x--------------------------------|
G-|*-0~--*|---000-0-00-00-0-00-0-00-0000-0-00-|
C-|--0~---|---000-0-00-00-0-00-0-00-0000-0-00-|
              ... . .. .. . .. . .. .... . ..


(x3)
D------------------|--------------------------------------------------------|
A------------------|*------------------------------------------------------*|
F------------------|--------------------------------------------------------|
C--3-5-3-2-3-5-3-2-|--------8---7---------8---7------------7---7---7--------|
G--3-5-3-2-3-5-3-2-|*---------------------------------------8---8---8------*|
C--3-5-3-2-3-5-3-2-|---00----0--------00-----0----0-0-----------------------|
                       ..    .        ..     .    . .
(x6)
D-------------|-------------------------------------------------------------|
A-------------|*-----------------------------------------------------------*|
F-------------|-------------------------------------------------------------|
C--3-5-3-2-3--|------------12---11---------12--11---------11---11---11------|
G--3-5-3-2-3--|*--------------------------------------------12---12---12---*|
C--3-5-3-2-3--|--------00----0--------00-----0----0-0-----------------------|
                       ..    .        ..     .    . .
D---------------------------------------------------------------------------|
A---------------------------------------------------------------------------|
F---------------------------------------------------------------------------|
C--3-5-3-2-0----------------------------------------------------------------|
G--3-5-3-2-0--0-0-0--0-0-0---0--0-------------------------------------------|
C--3-5-3-2-0--0-0-0--0-0-0---1--1-------------------------------------------|
              . . .  . . .   .  .

This is the end of the world!!...(Guitar 1) 2nd Breakdown
D--------------------------------17b17------------17b17--------------|
A--------------------------------------18br17-----------18br17-------|
F--------------------------------------------------------------------|
C--------------------------------------------------------------------|
G--0-11-1-11---0-11-1-11-1-------------------------------------------|
C-b1-22-2-22--b1-22-2-22-2-------------------------------------------|
   . .. . ..   . .. . .. .

Guitar 2 plays this
D-------------------------------|
A-------------------------------|
F-------------------------------|
C-------------------------------|
G--0-11-1-11---0--11-1-11-1-----|
C-b1-22-2-22--b1--22-2-22-2-----|
   . .. . ..   .  .. . .. .
D-------------------------------|
A-------------------------------|
F-------------------------------|
C-------------------------------|
G--0-00-0-00---0--00-0-00-0-----|
C--0-00-0-00---0--00-0-00-0-----|
   . .. . ..   .  .. . .. .

It is about 4 strums. SO one stroke up and one down  ^v^v
D------------------------|--------------------------------------------------|
A------------------------|--------------------------------------------------|
F-7-----9-------10------6|---6----------------------------------------------|
C-x-----x-------x-------x|---x(x3)------------------------------------------|
G-5-----7-------8-------4|---4----------------------------------------------|
C------------------------|--------------------------------------------------|

D---------------------------------------------------------------------------|
A---------------------------------------------------------------------------|
F-7-----9-------10------12-------14-----------------------------------------|
C-x-----x-------x-------x--------x------------------------------------------|
G-5-----7-------8-------10-------12-----------------------------------------|
C---------------------------------------------------------------------------|

D----------------------------------|----------------------------------------|
A----------------------------------|----------------------------------------|
F-10----9-------10------12-------14|-10-----9------10----9----7-------------|
C-x-----x-------x-------x------- x-|-x------x------x-----x----x-------------|
G-8-----7-------8-------10-------12|-8------7------8-----7----5-------------|
C----------------------------------|----------------------------------------|

bridge(x4)
D---------|
A---------|
F---------|
C-0-8-7~--|
G-0-8-7~--|
C-0-8-7~--|

(3:24-3:45)
D---------------------------------------------------------------------------|
A---------------------------------------------------------------------------|
F-------------------------7-------------------------------------------------|
C---8-7-------------7-------------------------------------------------------|
G--------5---------------4--------------------------------------------------|
C-0--------0-000-0-8--0-----------------------------------------------------|
  .        . ... .    .

3rd breakdown
D----------------|------------------------|
A----------------|------------------------|
F----------------|------------------------|
C----------------|----------0~------------|
G-0-0-0000-0-(x2)|-0-0-0000-0~------------|
C-0-0-0000-0-----|-0-0-0000-0~------------|
  . . .... .       . . ....
comments
We did not receive enough feedback on this tab! Please rate:
print report bad tab
1 2 3 4 5
I want to post or [tab]
guest
You may want to rate the tab now too:
select rating
Please do not post tabs as comments. Select "correction" instead!