Oops, an error
Loading. Please wait.

Joel The Watchman Tab

version 1
version 1

Whole song

Interactive

2,681 views 1 this week
4 commentsread comments
1 2 3 4 5
please rate
add to favorites
launch autoscroll
font size
0
reset
how to read this tab
guitar tuner
Tab Pro tools
  • play this tab
  • loop segment
  • change instrument
  • show fretboard
  • metronome
×
Best way to learn
"Joel The Watchman"
Autoscroll
slow
fast
+/-
esc
set tempo
stop
Contributor
Difficulty
Tuning
novice
C G C F A D
OK so here goes another one of my tabs! So far everyone thinks my tabs are really 
so i appreciate that. this one was definately a harder song to learn. I have a cover up on 
check out my channel http://www.youtube.com/user/battleaxbass52195

Drop C tuning.


INTRO
|------------10-15p10----15--------|
|----------11--------------15------|
|--------12------------------15-14-|
|------12--------------------------|
|-10h13----------------------------|
|----------------------------------|


|---------------------------------------|
|------------6-7--11-10-8-------8-10-11-|
|------------------------10-9-10--------|
|------6-7-9----------------------------|
|-6-7-9---------------------------------|
|---------------------------------------|

Those are 13s and 11s
|-------------------------------------------------|
|-131313-111111-13/15-15--------------------------|
|-----------------------14--12-12-14-15-14-11-11~-|
|-------------------------------------------------|
|-------------------------------------------------|
|-------------------------------------------------|

|--------------------------------------------------------|
|--------------------------------------------------------|
|-15-1515-17-151515-1515-17/20-20~--17-17h18p17-15-14-14-|
|--------------------------------------------------------|
|--------------------------------------------------------|
|--------------------------------------------------------|

|-------------------------------------------------|
|-----------------8-------------------------------|
|-------------7-8---------------------------------|
|-------5-7-8-------------------------------------|
|-5-7-8-------------------------------------------|
|-------------------------------------------------|

|--------------------------------------------------------------------|
|--------------------------------------------------------------------|
|--------------------------------------------------------------------|
|-5---------------------------1-4-5-------------4h5------1111-4444-5-|
|-5------5h6------3h5-3h5-----1-4-5------5h6-------5h6---1111-4444-5-|
|-5-5555-----5555----x----xx--1-4-5-5555----5555------xx-1111-4444-5-|


|---------------------------------|
|---------------------------------|
|---------------------------------|
|---------------------------------|
|-0000000--0000-0000-0000---------|
|-0000000--0000-0000-0000---------|

|-------------------------------------------------------------|
|-------------------------------------------------------------|
|-------------------------------------------------------------|
|-------------------------------------------------------------|X4
|-0000000--0000-0000-0000--000000--0000--00000000-------------|
|-0000000--0000-0000-0000--000000--0000--00000000-------------|


|-7h10p7---7--8h11p8---8--5h8p5---5-|
|-------8-8---------9-9--------6-6--|
|--------7-----------8----------5---|
|-----------------------------------|
|-----------------------------------|
|-----------------------------------|


|---------------------------------------7h10p7---7--5^----|
|------5-6-8--88-10-1010-11-10-8-7--8---------8-8-----8-7-|
|-5-6-8-------------------------------8--------7----------|
|---------------------------------------------------------|
|---------------------------------------------------------|
|---------------------------------------------------------|


|-7h10p7---7--8h11p8---8--15p10------10--12p8------8-----|
|-------8-8---------9-9--------12--12--------10--10-\----|
|--------7-----------8-----------12------------11--------| \
|--------------------------------------------------------|  \
|--------------------------------------------------------|   \
|---------------------------------------------------  ---|X2
                                                      /
                                                     /
|-15h18p15--------------------15--14h17p14--------------------14-|
|---------16----------------16------------15----------------15---|
|-----------15------------15----------------14------------14-----|
|-------------16--------16--------------------15--------15-------|
|---------------18-15h18------------------------17-14h17---------|
|----------------------------------------------------------------|


|-7h10p7---7--8h11p8---8--15p10------10--12p8------8-|
|-------8-8---------9-9--------12--12--------10--10--|
|--------7-----------8-----------12------------11----|
|----------------------------------------------------|
|----------------------------------------------------|
|----------------------------------------------------|


|-15h18p15--------------------15--14h17p14--------------------14-|
|---------16----------------16------------15----------------15---|
|-----------15------------15----------------14------------14-----|
|-------------16--------16--------------------15--------15-------|
|---------------18-15h18------------------------17-14h17---------|
|----------------------------------------------------------------|


|-15h18p15--------------------15--17h20p17--------------------17-|
|---------16----------------16------------18----------------18---|
|-----------15------------15----------------17------------17-----|
|-------------16--------16--------------------18--------18-------|
|---------------18-15h18------------------------20-17h20---------|
|----------------------------------------------------------------|


|-15h18p15--------------------15-17-|
|---------16----------------16------|
|-----------15------------15--------|
|-------------16--------16----------|
|---------------18-15h18------------|
|-----------------------------------|


|----------------------------------------|
|----------------------------------------|
|----------------------------------------|
|-------------------1--1---------------1-|
|-5--6-----------------------------------|
|-----00-00-0-001-0---0--0-0-00-0-1-000--|

|--------------------------------------------|
|--------------------------------------------|
|----------------------------------------\---|
|-------------------1--1---------------------| \
|---6-----------------------------/6-5-6-----|  \
|-----00-00-0-001-0---0--0-0-00-0------------|   X3
                                          /
                                         /
|----------------------------------------|
|----------------------------------------|
|----------------------------------------|
|---------------1---1--------------------|
|-----------------------------6-5--------|
|-00-00-0-001-0---0---0-0-00-0----000-0--|


|-------------------------------|
|-------------------------------|
|-------------------------------|
|-------------------------------|
|-0000000--0000-0000-0000-------|
|-0000000--0000-0000-0000-------|

|-------------------------------------------------------------|
|-------------------------------------------------------------|
|-------------------------------------------------------------|
|-------------------------------------------------------------|
|-0000000--0000-0000-0000--000000--0000--00000000-------------|
|-0000000--0000-0000-0000--000000--0000--00000000-------------|

Then this plays
|-----------------------------|
|----------8-7----------------|
|-8-7--8-7-----8-7------------|
|------------------4----------|
|-----------------------------|
|-----------------------------|


And thats it! but on that very last riff i made up my own harmony for it.
it sounds pretty cool
|----------------------------|
|--------------11-10---------|
|-12-11--12-11-------12-11---|
|----------------------------|
|-------------------------12-|
|----------------------------|
comments
We did not receive enough feedback on this tab! Please rate:
print report bad tab
1 2 3 4 5
4 comments total. Showing first comments.
0 reply
joester567 wrote on July 23 2009, 07:24 pm

sweet tab, im going to upload a cover of this soon, if you want to my channel is xrazr567x , id like to note this song is a little harder than novice

0 reply
sdamien6 wrote on July 23 2009, 07:43 pm

alright ill add you!
lets have a Sub4Sub as well =)
and your right. i should have done intermediate i just basically clicked and went lol

0 reply
whitekevin05 wrote on July 25 2009, 01:23 pm

everything sounds alright except for the intro verse right after the sweep. and also the sweeps leading to the breakdown sound a little off. props to you for actually taking the time to tab this song though

I want to post or [tab]
guest
You may want to rate the tab now too:
select rating
Please do not post tabs as comments. Select "correction" instead!