Oops, an error
Loading. Please wait.

Joel The Watchman Tab

version 2
version 2

Whole song

Interactive

6,841 views 1 this week
2 commentsread comments
1 2 3 4 5
excellent!
x 4
add to favorites
launch autoscroll
font size
0
reset
how to read this tab
guitar tuner
Autoscroll
slow
fast
+/-
esc
set tempo
stop
Help us to improve Ultimate-Guitar.com Take our survey!
×
Author
Difficulty
Tuning
intermediate
C G C F A D
-------------------------------------------------------------------------------
                             Joel The Watchman- For Today
-------------------------------------------------------------------------------
Tabbed by:Whitekevin05
Email:

Tuning:Drop C
Intro
|---------------10-15p10h15~-10----------------------------------------------------------|
|------------11----------------11-10-----------------------------------------------------|
|---------12-----------------------------------------------------------------------------|
|------12--------------------------------------------------------------------------------|
|10-13-----------------------------------------------------------------------------------|
|----------------------------------------------------------------------------------------|

|------------5-8/11p8-----------------------------------------------------------------|
|----------7----------10-----------10---11-13-11-15-10~-8-10/11p10-7-7----------------|
|------5-8---------------11p8----8----------------------------------------------------|
|--4-7------------------------10------------------------------------------------------|
|6------------------------------------------------------------------------------------|
|-------------------------------------------------------------------------------------|


|---------------------------------------------------------------------------------------|
|11-13"-11"-15"-16~---13-13h15p13-11-10-------------------------------------------------|
|----------------------------------------------------5-7-8-7-8-10-12/-------------------|
|---------------------------------------5-7-8-7-8-10------------------------------------|
|---------------------------------------------------------------------------------------|
|---------------------------------------------------------------------------------------|

Repeat verse as needed
|---------------------------------------------------------------------------|
|---------------------------------------------------------------------------|
|---------------------------------------------------------------------------|
|----------------------------1-4-5-------------4h5------1111-4444-5~--------|
|----5h6------3h5----3h5-----1-4-5-----5h6----------5h6-1111-4444-5~--------|
|0000----0000-----00-----00001-4-5-0000----0000---00----1111-4444-5~--------|
                                                         P.M   P.M

Breakdown
|-----------------------------------------------------------------------------|
|-----------------------------------------------------------------------------|
|-----------------------------------------------------------------------------|
|-----------------------------------------------------------------------------|
|0000000-0000-0000-0000----0000000-0000-0000-0000-000000-0000-00000000--------|
|0000000-0000-0000-0000----0000000-0000-0000-0000-000000-0000-00000000--------|


Beginning solo

|6h10p6---10----8h11p8-----11----5h8p5---8---------------------------------------------|
|------8-8------------10-10---------7-7----------------7-8~-7-8-10~-8-10-11-10-8-7-8---|
|-------7--------------11------------8-------------7-8------------------------------8--|
|----------------------------------------------7-8-------------------------------------|
|-------------------------------------------10-----------------------------------------|
|--------------------------------------------------------------------------------------|

|6h10p6------------------------------------------------------------------------|
|------8-8-10b-8-7-------------------------------------------------------------|
|-------7----------------------------------------------------------------------|
|------------------------------------------------------------------------------|
|------------------------------------------------------------------------------|
|------------------------------------------------------------------------------|


Sweeping part of solo (repeat twice)
|6h10p6---10/11p8-----11/15p10------10-11p8-----11---------------------------------|
|------8-8-------10-10--------11--11-------10-10-----------------------------------|
|-------7----------8------------12-----------8-------------------------------------|
|----------------------------------------------------------------------------------|
|----------------------------------------------------------------------------------|
|----------------------------------------------------------------------------------|

|15h18p15-----------------15h18-14h17p14-----------------14h17------------------------|
|--------16-------------16--------------15-------------15-----------------------------|
|----------15---------15------------------14---------14-------------------------------|
|------------17-----17----------------------16-----16---------------------------------|
|--------------18-18--------------------------17-17-----------------------------------|
|-------------------------------------------------------------------------------------|
after repeating sweeping twice: play 5 string sweep then this:

|-15h18p15--------------------15--14h17p14--------------------14-|
|---------16----------------16------------15----------------15---|
|-----------15------------15----------------14------------14-----|
|-------------16--------16--------------------15--------15-------|
|---------------18-15h18------------------------17-14h17---------|
|----------------------------------------------------------------|


|-15h18p15--------------------15--17h20p17--------------------17-|
|---------16----------------16------------18----------------18---|
|-----------15------------15----------------17------------17-----|
|-------------16--------16--------------------18--------18-------|
|---------------18-15h18------------------------20-17h20---------|
|----------------------------------------------------------------|


|-15h18p15--------------------15-17-|
|---------16----------------16------|
|-----------15------------15--------|
|-------------16--------16----------|
|---------------18-15h18------------|
|-----------------------------------|

First part of breakdown
|---------------------------------|
|---------------------------------|
|---------------------------------|
|---------------------------------|
|6---------------6-6-----------6--|
|-00-00-0-00-1-00-0-00-00-0-000---|

repeat as needed
|------------------------------------|
|------------------------------------|
|------------------------------------|
|------------------------------------|
|6---------------6-6------------6/5--|
|-00-00-0-00-1-00-0-00-0-000-00------|


Slower version of breakdown played in song previously
 -----------------------------------------------------------------------------|
|-----------------------------------------------------------------------------|
|-----------------------------------------------------------------------------|
|-----------------------------------------------------------------------------|
|0000000-0000-0000-0000----0000000-0000-0000-0000-000000-0000-00000000--------|
|0000000-0000-0000-0000----0000000-0000-0000-0000-000000-0000-00000000--------|

Outro
|-----------------------------------------------------------------------------------|
|-----------------------------------------------------------------------------------|
|8----8----12-11-8-7----------------------------------------------------------------|
|--12---12--------------------------------------------------------------------------|
|--------------------9--------------------------------------------------------------|
|-----------------------------------------------------------------------------------|

Harmony
|----------------------------|
|--------------11-10---------|
|-12-11--12-11-------12-11---|
|----------------------------|
|-------------------------12-|
|----------------------------|


There ya go! Should be pretty accurate for the most part. Have fun, this is
by far not an easy song!!
Suggest correction
comments
print report bad tab
2 comments total.
0 reply
Okeefe Is Legit 238 wrote on September 24 2009, 10:59 pm

I'm glad someone tabbed this beast out.

Thanks man :]

0 reply
xXJNEAVESXx 10 wrote on March 22 2012, 09:59 am

why is sweeping so hard -__- i need to learn how like now but no one knows any good ways to help teach GAHHH tab seems right tho!

guest
You may want to rate the tab now too:
select rating
Wanna post a correction for this tab? Suggest correction