Oops, an error
Loading. Please wait.

King Tab

version 2
version 2

Intro

Interactive

1,499 views 1 this week
no commentswrite comment
1 2 3 4 5
please rate
add to favorites
launch autoscroll
font size
0
reset
how to read this tab
guitar tuner
Tab Pro tools
  • play this tab
  • loop segment
  • change instrument
  • show fretboard
  • metronome
×
Best way to learn
"King"
Autoscroll
slow
fast
+/-
esc
set tempo
stop
Contributor
Difficulty
Tuning
advanced
C G C F A D
 King                                       


                                                                       For Today
Lead



      |---3---|  |--3--|  |---3---|  |--3--|  |---3---|  |--3--|        
      S   S   S  S  S  S  S   S   S  S  S  S  S   S   S  S  S  S  Q     
D||--13h-17p-13------------------------------13h-17p-13----------------|
A||-------------15------------------------15------------15-------------|
F||----------------14------------------14------------------14----------|
C||-------------------15------------15------------------------15-------|
G||----------------------17p-12h-17------------------------------17----|
C||--------------------------------------------------------------------|


  E   S  S  S  S  S  S  S  S  S  S  Q     
-----17-15-13----------------------------|
--------------17-15-14-------------------|
-----------------------15-14-12----------|
--------------------------------15-14----|
-----------------------------------------|
-----------------------------------------|


   S  S  S  S  S  S  S  S  S  S  S  S  S  S  S  S  
--------------------------------------------------|
--------------------------------------------------|
--------------------18-19-------------------18-19-|
-----------17-19-20----------------17-19-20-------|
--17-19-20----------------17-19-20----------------|
--------------------------------------------------|


                               |------3-----|     
   S   S   S  S  S   S   S  S  Q      Q     Q     
-------------------------------------------------|
--14h-15p-14------------------18S----17----14----|
-------------15-14h-15p-14-----------------------|
---------------------------15--------------------|
-------------------------------------------------|
-------------------------------------------------|


   |---3---|  |--3--|  |---3---|  |--3--|  |---3---|  |--3--|        
   S   S   S  S  S  S  S   S   S  S  S  S  S   S   S  S  S  S  Q     
--13h-17p-13------------------------------13h-17p-13----------------|
-------------15------------------------15------------15-------------|
----------------14------------------14------------------14----------|
-------------------15------------15------------------------15-------|
----------------------17p-12h-17------------------------------17----|
--------------------------------------------------------------------|


  E   S  S  S  S  S  S  S  S  S  S  Q     
-----17-15-13----------------------------|
--------------17-15-14-------------------|
-----------------------15-14-12----------|
--------------------------------15-14----|
-----------------------------------------|
-----------------------------------------|


   S  S  S  S  S  S  S  S  S  S  S  S  S  S  S  S  
--------------------------------------------------|
--------------------------------------------------|
--------------------18-19-------------------18-19-|
-----------17-19-20----------------17-19-20-------|
--17-19-20----------------17-19-20----------------|
--------------------------------------------------|


                               |------3-----|                              
   S   S   S  S  S   S   S  S  Q      Q     Q        E   E  H.             
-------------------------------------------------|-----------------------||
--14h-15p-14------------------18S----17----14----|--15\------------------||
-------------15-14h-15p-14-----------------------|-----------------------||
---------------------------15--------------------|-----------------------||
-------------------------------------------------|-----------------------||
-------------------------------------------------|-----------------------||


                           King                                       


                                                                       For Today
Harmony



      |---3---|  |--3--|  |---3---|  |--3--|  |---3---|  |--3--|        
      S   S   S  S  S  S  S   S   S  S  S  S  S   S   S  S  S  S  Q     
D||--13h-17p-13------------------------------13h-17p-13----------------|
A||-------------15------------------------15------------15-------------|
F||----------------14------------------14------------------14----------|
C||-------------------15------------15------------------------15-------|
G||----------------------17p-12h-17------------------------------17----|
C||--------------------------------------------------------------------|


  E   S  S  S  S  S  S  S  S  S  S  Q     
-----17-15-13----------------------------|
--------------17-15-14-------------------|
-----------------------15-14-12----------|
--------------------------------15-14----|
-----------------------------------------|
-----------------------------------------|


   S  S  S  S  S  S  S  S  S  S  S  S  S  S  S  S  
--------------------------------------------------|
--------------------------------------------------|
--------------------18-19-------------------18-19-|
-----------17-19-20----------------17-19-20-------|
--17-19-20----------------17-19-20----------------|
--------------------------------------------------|


                               |------3-----|     
   S   S   S  S  S   S   S  S  Q      Q     Q     
------------------------------17S----15----12----|
--17h-18p-17-------------------------------------|
-------------19-18h-19p-18-----------------------|
---------------------------19--------------------|
-------------------------------------------------|
-------------------------------------------------|


   |---3---|  |--3--|  |---3---|  |--3--|  |---3---|  |--3--|        
   S   S   S  S  S  S  S   S   S  S  S  S  S   S   S  S  S  S  Q     
--13h-17p-13------------------------------13h-17p-13----------------|
-------------15------------------------15------------15-------------|
----------------14------------------14------------------14----------|
-------------------15------------15------------------------15-------|
----------------------17p-12h-17------------------------------17----|
--------------------------------------------------------------------|


  E   S  S  S  S  S  S  S  S  S  S  Q     
-----17-15-13----------------------------|
--------------17-15-14-------------------|
-----------------------15-14-12----------|
--------------------------------15-14----|
-----------------------------------------|
-----------------------------------------|


   S  S  S  S  S  S  S  S  S  S  S  S  S  S  S  S  
--------------------------------------------------|
--------------------------------------------------|
--------------------18-19-------------------18-19-|
-----------17-19-20----------------17-19-20-------|
--17-19-20----------------17-19-20----------------|
--------------------------------------------------|


                               |------3-----|                              
   S   S   S  S  S   S   S  S  Q      Q     Q        E   E  H.             
------------------------------17S----15----12----|--13\------------------||
--17h-18p-17-------------------------------------|-----------------------||
-------------19-18h-19p-18-----------------------|-----------------------||
---------------------------19--------------------|-----------------------||
-------------------------------------------------|-----------------------||
-------------------------------------------------|-----------------------||




Duration Legend
---------------
W - whole
H - half
Q - quarter
E - 8th
S - 16th
T - 32nd
X - 64th
. - note dotted
|-n-|  - n-tuplets


Tablature Legend
----------------
L - tied note
x - dead note
g - grace note
(n) - ghost note
> - accentuded note
NH - natural harmonic
AH - artificial harmonic
TH - tapped harmonic
SH - semi harmonic
PH - pitch harmonic
h - hammer on
p - pull off
b - bend
br - bendRelease
pb - preBend
pbr - preBendRelease
brb - bendReleaseBend
\n/ - tremolo bar dip
\n - tremolo bar dive
-/n - tremolo bar Release up
/n\ - tremolo bar inverted dip
/n - tremolo bar return
-\n - tremolo bar Release down
S - shift slide
s - legato slide
/ -  slide into from below or out of upwards
\ -  slide into from above or out of downwards
~ - vibrato
W - wide vibrato
tr - trill
TP - tremolo picking
T - tapping
S - slap
P - pop
< - fade in
^ - brush up
v - brush down




Duration Legend
---------------
W - whole
H - half
Q - quarter
E - 8th
S - 16th
T - 32nd
X - 64th
. - note dotted
|-n-|  - n-tuplets


Tablature Legend
----------------
L - tied note
x - dead note
g - grace note
(n) - ghost note
> - accentuded note
NH - natural harmonic
AH - artificial harmonic
TH - tapped harmonic
SH - semi harmonic
PH - pitch harmonic
h - hammer on
p - pull off
b - bend
br - bendRelease
pb - preBend
pbr - preBendRelease
brb - bendReleaseBend
\n/ - tremolo bar dip
\n - tremolo bar dive
-/n - tremolo bar Release up
/n\ - tremolo bar inverted dip
/n - tremolo bar return
-\n - tremolo bar Release down
S - shift slide
s - legato slide
/ -  slide into from below or out of upwards
\ -  slide into from above or out of downwards
~ - vibrato
W - wide vibrato
tr - trill
TP - tremolo picking
T - tapping
S - slap
P - pop
< - fade in
^ - brush up
v - brush down
comments
We did not receive enough feedback on this tab! Please rate:
print report bad tab
1 2 3 4 5
I want to post or [tab]
guest
You may want to rate the tab now too:
select rating
Please do not post tabs as comments. Select "correction" instead!