Oops, an error
Loading. Please wait.

Never Lose Sight Of The Goals Bass Tab

935 views 3 this week
no commentswrite comment
1 2 3 4 5
1 last vote to show rating
add to favorites
launch autoscroll
font size
0
reset
guitar tuner
Autoscroll
slow
fast
+/-
esc
set tempo
stop
Help us to improve Ultimate-Guitar.com Take our survey!
×
Author
Tuning
C G C F A D
This is my first tab and nobody has but a tab up for this song yet. I hope it 
helps all those for today fans out there

Intro

F|-----------------------------------------------|
C|-----------------------------------------------|
G|-----------------------------------------------|
C|-00000-1010-88-77-33-77-0000-1010-88-7b-0/10\0-|

Verse (part A)
 
F|-----------------------------------|
C|----------5-3-2h3------------------| x6
G|------------------111111-3333-1-0--|
C|-0-00-0----------------------------|

Verse (part B)

F|------------------------|
C|---------------8p7---7--| x5
G|-----------8h10---10----|
C|-000000-----------------|

F|--------|
C|--------|
G|--------|
C|-000000-|

Verse (part C)

F|-------------|
C|-------------| x8
G|-----------0-|
C|-0-2-5-3-5---|

F|----|
C|----|
G|----|
C|-0~-|

Breakdown

F|--------------------------------------|
C|--------------------------------------| x6
G|--------------------------------------|
C|-00-------00-00-00------00-00--000-000|

Bridge

F|-----------------------------|
C|-----------------------------| x2
G|-8[x16]-5[x16]-1[x16]-3[x16]-|
C|-----------------------------|


Bass Solo Part

F|--------------------|
C|---------13h15------| 
G|-3/13h15--------13--|
C|--------------------|



F|---------|
C|---------| 
G|---------|
C|-12/0----|

F|---------------------------------------|
C|---------------------------------------| 
G|---------------------------------------|
C|--000000000000000000-33333333333333333-|

F|-------------------------------------------|
C|-------------------------------------------| x5
G|-------------------------------------------|
C|-8-7-5-3----3[x16]--5[x16]--7[x16]--8[x8]--|

Verse (part A)
 
F|--------------------------------------|
C|----------5-3-2h3---------------------| x6
G|---------------------111111-3333-1-0--|
C|-0-00-0-------------------------------|

Breakdown

F|--------------------------------------|
C|--------------------------------------| x6
G|--------------------------------------|
C|-00-------00-00-00------00-00--000-000|

Hope you enjoyed.
God Bless
Suggest correction
Give kudos to tab author, rate the tab!
1 2 3 4 5
comments
print report bad tab
guest
You may want to rate the tab now too:
select rating
Wanna post a correction for this tab? Suggest correction