Oops, an error
Loading. Please wait.

Saul Of Tarsus Tab

version 1
version 1

Whole song

Interactive

26,226 views 1 this week
7 commentsread comments
1 2 3 4 5
x 10
add to favorites
launch autoscroll
font size
0
reset
how to read this tab
guitar tuner
Autoscroll
slow
fast
+/-
esc
set tempo
stop
Help us to improve Ultimate-Guitar.com Take our survey!
×
Author
the first tab for it! and im prettyu sure its about 95% right. its what i play in
my video. its here--http://www.youtube.com/watch?v=7sTC-xPaPiQ

INTRO
|----------------|
|----------------|
|----------------|
|-5--4--7--0-----|
|-5--4--7--0-----|
|-5--4--7--0-----|

Then before the fast part you play

|----------------|
|----------------|
|-/12-11-14------|
|----------------|
|----------------|
|----------------|

|-------------------------------------------------
|-----------------------------------10h11p10------
|----------------11-12-11h12p11-------------12-11-
|--------8-10-12---------------13-12--------------
|-9-10-12-----------------------------------------
|-------------------------------------------------\
                                                   \
                                                    \
|---------------------------------                   \
|----------------7h8p7------------                    \ 
|----------------------8-7--------                     \
|--------8-10-12-----------8------                      \
|-9-10-12--------------------9----                       \
|---------------------------------                        \X3
                                                         /
                                                        /
|-------------------------------------------------     /
|-----------------------------------10h11p10------    /
|----------------11-12-11h12p11-------------12-11-   /
|--------8-10-12---------------13-12--------------  /
|-9-10-12----------------------------------------- /
|-------------------------------------------------/
                                                /
                                               /
                                              /
|--------------------------------------------/
|-------------------------------------------/
|---------------------/12-11-14----------- /
|---------8------------------------------ /
|-9-10-12---12-10-9-10-------------------/
|---------------------------------------/

|---------------------------|
|---------------------------|
|---------------------------|
|---------------------------|
|-0-0000-0000--0-0000-------|
|-0-0000-0000--0-0000-------|

|-------------------------|
|-------------------------|
|-------------------------|
|-------------------------|
|-0-000-0000-0-00-0--0000-|
|-0-000-0000-0-00-0--0000-|


|---------------------------|
|---------------------------|
|---------------------------|
|---------------------------|
|-0-0000-0000--0-0000-------|
|-0-0000-0000--0-0000-------|


|---------------------------|
|---------------------------|
|---------------------------|
|---------------------------|
|-0000-0-0000--0-0-0--------|
|-0000-0-0000--0-0-0--------|


|---------------------------|
|---------------------------|
|---------------------------|
|---------------------------|
|-0-0000-0000--0-0000-------|
|-0-0000-0000--0-0000-------|


|-------------------------|
|-------------------------|
|-------------------------|
|-------------------------|
|-0-000-0000-0-00-0--0000-|
|-0-000-0000-0-00-0--0000-|


|---------------------------|
|---------------------------|
|---------------------------|
|---------------------------|
|-0-0000-0000--0-0000-------|
|-0-0000-0000--0-0000-------|


|---------------------------|
|---------------------------|
|---------------------------|
|---------------------------|
|-0000-0-0000--0-0-0--------|
|-0000-0-0000--0-0-0--------|


|------------------------------|
|------------------------------|
|---------------------9b-------|
|-5-------8--------8-----8-----|X2
|-5---6--------6---------------|
|-5-5---5---55---5---5---------|


|-------------------------------------------------------|
|------------------------------------------------8-10---|
|-----------------------------------------------8-------|
|-4------------4---7-----------4-------------7/8--------|
|-4---5---6------------6---5---4---5---6----9-----------|
|-4-4---4---44---4---4---4---4-4-4---4---44-------------|


|-------------------------------|
|-------------------------------|
|---------------------9b--------|
|-5-------8--------8-----8------|X2
|-5---6--------6----------------|
|-5-5---5---55---5---5----------|
                                |plays these two twice
                                |_
|-----------------------------------------------------8-|
|--------------------------------------------------7h8--|
|-----------------------------------------------7h8-----|
|-4------------4---7-----------4-------------7h8--------|
|-4---5---6------------6---5---4---5---6----9-----------|
|-4-4---4---44---4---4---4---4-4-4---4---44-------------|

|------------------------------|
|------------------------------|
|-12------15-----14-----11-----|
|--X-X8----X-x4---X-x4--X--x9--|
|-10------13-----12-----9------|
|------------------------------|


|------------------|
|------------------|
|------------------|
|------------------|
|-6----------------|
|--55-5--5-55-5-55-|

DRUM FILL

|--------------------------|
|--------------------------|
|------------------------\-|
|--------------------------| \
|-6------------------------|  \
|--55-5--5-55-5-55-55-55---|   \
                            | these two X3
|------------------------------|
|------------------------------|
|------------------------------|
|------------------------------|
|-5----------------------------|
|--44-4--4-44-4-44-44-44-44-44-|


|-----------------|
|-----------------|
|-----------------|
|-1---5-4-1--0----|X2
|-1---5-4-1--0----|
|-1---5-4-1--0----|


|--------------------------------------------------|
|--------------------------------------------------|
|--------------------------------------------------|X3
|--------------------------------------------------|
|-0-0-0--0-00-0-00--0--0-0-0--0-00-0-00-0-0-0-0----|
|-0-0-0--0-00-0-00--0--0-0-0--0-00-0-00-0-1-1-1----|


on the third time you play the above riff, you end on

|-------|
|-------|
|-------|
|-0-1-5-|
|-0-1-5-|
|-0-1-5-|


|------------------------------|
|------------------------------|
|---------------------9b-------|
|-5-------8--------8-----8-----|X2
|-5---6--------6---------------|
|-5-5---5---55---5---5---------|


|-------------------------------------------------------|
|------------------------------------------------8-10---|
|-----------------------------------------------8-------|
|-4------------4---7-----------4-------------7/8--------|
|-4---5---6------------6---5---4---5---6----9-----------|
|-4-4---4---44---4---4---4---4-4-4---4---44-------------|


|------------------------------|
|------------------------------|
|---------------------9b-------|
|-5-------8--------8-----8-----|X2
|-5---6--------6---------------|
|-5-5---5---55---5---5---------|


|-----------------------------------------------------8-|
|--------------------------------------------------7h8--|
|-----------------------------------------------7h8-----|
|-4------------4---7-----------4-------------7h8--------|
|-4---5---6------------6---5---4---5---6----9-----------|
|-4-4---4---44---4---4---4---4-4-4---4---44-------------|


|------------------------------|
|------------------------------|
|---------------------9b-------|
|-5-------8--------8-----8-----|X2
|-5---6--------6---------------|
|-5-5---5---55---5---5---------|


|-----------------------------------------------------8-|
|--------------------------------------------------7h8--|
|-----------------------------------------------7h8-----|
|-4------------4---7-----------4-------------7h8--------|
|-4---5---6------------6---5---4---5---6----9-----------|
|-4-4---4---44---4---4---4---4-4-4---4---44-------------|


|--------------------------------------|
|----------------11---10---------------|
|---------------------------10h12------|
|-8---12---10--------------------------|
|-8------------------------------------|
|-8-8----8----88----8----88------------|


|---------------------------|
|---------------------------|
|--------------8---7---7/10-|
|-5---8---7-----------------|
|-5-------------------------|
|-5-5---5---55---5---55-----|


|------------10-15p10-----------|
|----------11--------11---------|
|--------12------------12-------|
|------12----------------12-----|X2
|-10h13--------------------13---|
|-------------------------------|


|------------12-17p12---------|
|----------13--------13-------|
|--------14------------14-----|
|------14----------------14---|X2
|-12h15--------------------15-|
|-----------------------------|


|-18p13-----------------------------|
|-------15-13h15p13-----------------|
|-------------------14-1515-14-1515-|X2
|-----------------------------------|
|-----------------------------------|
|-----------------------------------|


|--------------------------------------|
|-20p15--------------------------------|
|------17-14h15p14--12-14-15--12-14-15-|X2
|--------------------------------------|
|--------------------------------------|
|--------------------------------------|

|---------------------------------------|
|---------------------------------------|
|----------15----------15--15/17--15/17-|
|-13-15-17----13-15-17------------------|
|---------------------------------------|
|---------------------------------------|


|-------------------12h13p12-------------------|
|----------12h13h15----------16-15-13----------|
|-10h12h14----------------------------15-15~~~-|
|----------------------------------------------|
|----------------------------------------------|
|----------------------------------------------|
Suggest correction
comments
print report bad tab
7 comments total. Showing first comments.
+2 reply
The Cobra 10 Jul 14, 2009 01:11 PM

awesome tab... they are really talented as well as you... 5 stars

0 reply
sdamien6 171 Jul 14, 2009 01:42 PM

thanks man i appreciate the feedback!

-1 reply
kevinabrd 30 Jul 24, 2009 09:00 PM

what tuning is this on

guest
You may want to rate the tab now too:
select rating
Wanna post a correction for this tab? Suggest correction