Oops, an error
Loading. Please wait.

Saul Of Tarsus Tab

version 2
version 2

Whole song

Interactive

5,133 views 6 this week
1 commentread comment
1 2 3 4 5
x 3
add to favorites
launch autoscroll
font size
0
reset
how to read this tab
guitar tuner
Autoscroll
slow
fast
+/-
esc
set tempo
stop
Help us to improve Ultimate-Guitar.com Take our survey!
×
Author
----------------------------------------------------------------------------
                             Saul of Tarsus - For Today
----------------------------------------------------------------------------
Tabbed by: xtommyguntim
i didn't try to space the notes perfect to the timing, so just listen  

Tuning: Drop C

D|--------------------------|
A|--------------------------|
F|--------------------------|x4
C|-------------0~-----------|
G|-------------0~-----------|
C|-5---4---7---0~-----------|

D|----------|
A|--8-7-10--|
F|----------|
C|----------|
G|----------|
C|----------|

D|---------------------------5h6p5---------------------------------|
A|--------------7-8-10-8-7---------8-7-------------7-8-10-8-7------|
F|--------3-5-7------------8-----------------3-5-7------------8----|\
C|--4-5-7------------------------------4-5-7--------------------4~-| \
G|-----------------------------------------------------------------|  \
C|-----------------------------------------------------------------|   \   
                                                                        \
D|---------------------------5h6p5--------------------------------------|\x2
A|--------------7-8-10-8-7---------8-7-------------7-8-10-8-7----8-7-10-| \
F|--------3-5-7------------8-----------------3-5-7------------8---------| /
C|--4-5-7------------------------------4-5-7----------------------------|/
G|----------------------------------------------------------------------|
C|----------------------------------------------------------------------|

--------------------------------------
then a breakdown, just palm muted 0's
--------------------------------------

D|-------------------------------------------|\
A|-------------------------------------------| \
F|-----------------------7^------------------|  \
C|---------8---------8-----------------------|x2 \
G|-5-5-6-5---5-5-6-5---5---------------------|   |
C|-5-5---5---5-5---5---5---------------------|   |
     .   .   . .   .   .                         |
                                                 |
D|--------------------------------------------|  |
A|--------------------------------------------|  |
F|--------------------------------------------|  |
C|-------------------4------------------------|  |
G|-4-4-4-4-5-4-4-4-4---4-5-4-4-4-4-4-4-5-4-7--|   \
C|-4-4---4---4-4---4---4---4---4-4---4---4----|   |
     .   .   . .   .   .   .     .   .   .        |x3
                                                  |   
D|----------5---------------------------------|  /
A|--------4-----------------------------------| /
F|------5-------------------------------------|/
C|--4h7---------------------------------------|
G|--------------------------------------------|
C|--------------------------------------------|

D|--------------------------------------------|
A|--------------------------------------------|
F|-12---15---14---11-(i didnt put the timings)|
C|-x----x----x----x---------------------------|
G|-10---13---12---9---------------------------|
C|--------------------------------------------|

D|---------------------|-----------------------|
A|----(just listen for times)------------------|
F|---------------------|-----------------------|
C|---------------------|------5-----4----------|
G|-6-5-------5-4-------|--------5-----4--------|
C|---5---------4-------|--------5-----4--------|

D|--------------------------------------------|
A|--------------------------------------------|
F|--------------------------------------------|
C|-1~-----5-4-1--0~---------------------------|x2
G|-1~-----5-4-1--0~---------------------------|
C|-1~-----5-4-1--0~---------------------------|

---------------------------------
another breakdown, palm muted 0's
---------------------------------

D|--------------------------------------------|
A|--------------------------------------------|
F|-some of these are in the breakdown---------|
C|--------------------------------------------|
G|-0------------------------------------------|
C|-1------------------------------------------|
   .

------------------------------------------
then it's open 0's on the heaviest string
------------------------------------------

D|---------------|
A|---------------|this leads 
F|---------------|into the 
C|---------------|next riff
G|-0-1-----------|
C|-0-1-----------|

D|-------------------------------------------|
A|-------------------------------------------| \
F|-----------------------7^------------------|  \
C|---------8---------8-----------------------|x2 \
G|-5-5-6-5---5-5-6-5---5---------------------|   |
C|-5-5---5---5-5---5---5---------------------|  /
     .   .   . .   .   .                        \
                                                \
D|--------------------------------------------| \
A|--------------------------------------------| \
F|--------------------------------------------| \
C|-------------------4------------------------| \
G|-4-4-4-4-5-4-4-4-4---4-5-4-4-4-4-4-4-5-4-7--| \
C|-4-4---4---4-4---4---4---4---4-4---4---4----| \
     .   .   . .   .   .   .     .   .   .      \
                                                 |x3   
D|-----------5--------------------------------| /
A|--------4-----------------------------------| /
F|------5-------------------------------------|/
C|--4h7---------------------------------------|
G|--------------------------------------------|
C|--------------------------------------------|

D|--------------------------------------------|
A|--------------------------------------------|
F|----------------------15---14----10/12------|
C|-------12----10-----------------------------|
G|-13-13----13----13-13----13---13------------|
C|--------------------------------------------|
   .  .     .     .  .     .    .

D|--------------------------------------------|
A|--------------------------------------------|
F|--------------------8----7----8/10----------|
C|-------8----7-------------------------------|
G|-10-10---10---10-10---10---10---------------|
C|--------------------------------------------|
   .  .    .    .  .    .    . 

D|------------10h15p10-----------------|
A|----------11--------11---------------|
F|--------10------------10-------------|x2
C|------12----------------12-----------|
G|-10h13--------------------13---------|
C|-------------------------------------|

D|------------12h17p12--------------|
A|----------13--------13------------|
F|--------12------------12----------|x2
C|------14----------------14--------|
G|-12h15--------------------15------|
C|----------------------------------|

D|-18p13-----------------------------|
A|------15---------------------------|
F|--------17-15-14-17-15-14-14h15----|x2
C|-----------------------------------|
G|-----------------------------------|
C|-----------------------------------|

D|--15p10-------------------------------------|
A|-------13-----------------------------------|
F|---------15-14-12-15-14-12-12h14------------|x2
C|--------------------------------------------|
G|--------------------------------------------|
C|--------------------------------------------|

D|--------------------------------------------|
A|--------------------------------------------|
F|-8-10-12-15--8-10-12-15--17-17~-------------|
C|--------------------------------------------|
G|--------------------------------------------|
C|--------------------------------------------|

D|----------------10h13p10--------------------|
A|--------10h11h13--------13~-11-11\----------|
F|-8h10h12------------------------------------|
C|--------------------------------------------|
G|--------------------------------------------|
C|--------------------------------------------|

| .  palm muted
| /  slide up
| \  slide down
| h  hammer-on
| p  pull-off
| ~  vibrato
| +  harmonic
| x  Mute note
========================================================
Suggest correction
Give kudos to tab author, rate the tab!
1 2 3 4 5
comments
print report bad tab
1 comment total.
0 reply
Hardcore_Shane 16 Sep 14, 2010 06:20 AM

Good tab, although one thing you could of added in, was the breakdown instead of just saying breakdown with palm muted 0's, im actually stuck on getting the pattern down, its beginning to annoy me haha.

Thanks for the tab though :)

guest
You may want to rate the tab now too:
select rating
Wanna post a correction for this tab? Suggest correction