Oops, an error
Loading. Please wait.

Talmidim Bass Tab

1,994 views 1 this week
1 commentread comment
1 2 3 4 5
worth learning
x 3
add to favorites
launch autoscroll
font size
0
reset
guitar tuner
Tab Pro tools
  • play this tab
  • loop segment
  • change instrument
  • show fretboard
  • metronome
Autoscroll
slow
fast
+/-
esc
set tempo
stop
Standard Tuning: EADG

Intro Part 1 x3

G|------------------------------------------------|
D|------------------------2-22222-22222-22222-2222|
A|------------------------------------------------|
E|4-44444-44444-44444-4444------------------------|

G|------------------------------------------------|
D|------------------------------------------------|
A|3-33333-33333-33333-33331-11111-11111-11111-1111|
E|------------------------------------------------|

Intro Part 2 (also considered the chorus/verse)

G|------------------------------------------------|
D|------------------------2-22222-22222-22222-2222|
A|------------------------------------------------|
E|4-44444-44444-44444-4444------------------------|

G|----------------------------------------------------------------------|
D|----------------------------------------------------------------------|
A|3-33333-33333-33333-333312-1212121212-1212121212-1212121212-12121212--|
E|----------------------------------------------------------------------|

Chorus/Verse/Speech

G|----------------------------------------------------|
D|----------------------------------------------------|
A|12------------------------3-33333-33333-33333-3333--|
E|--4-44444-44444-44444-4444--------------------------|

G|--------------------------------------------------------------|
D|--------------------------------------------------------------|
A|------------------------1-11111-1111[12]-1212121212-12121212--|
E|4-44444-44444-44444-4444--------------------------------------|

Repeat intro part 1 once then do part 2 once

G|------------------------------------------------|
D|------------------------------------------------|
A|------------------------3-33333-33333-33333-3333|
E|4-44444-44444-44444-4444------------------------|

G|------------------------------------------------|
D|------------------------------------------------|
A|------------------------1-11111-11111-11111-1111|
E|4-44444-44444-44444-4444------------------------|

Repeat intro part 1 twice
Repeat intro part 2 once
Repeat intro part 1 one more time then do this:

G|------------------------------------------------|
D|------------------------2-22222-22222-22222-2222|
A|------------------------------------------------|
E|4-44444-44444-44444-4444------------------------|

G|------------------------------------------------|
D|------------------------------------------------|
A|3-33333-33333-33333-33331~~~~~~-----------------|
E|------------------------------------------------|

END

This is my first tab i think its right but there might be mistakes
comments
We did not receive enough feedback on this tab! Please rate:
print report bad tab
1 2 3 4 5
1 comment total.
0 reply
f1o-jo wrote on May 13 2010, 02:32 pm

instead of playing the high e you need to play an e flat,
|---| |---|
|--1| instead of|--2|
|---| |---|
|---| |---|

I want to post or [tab]
guest
You may want to rate the tab now too:
select rating
Please do not post tabs as comments. Select "correction" instead!