Oops, an error
Loading. Please wait.

Talmidim Tab

version 4
version 4

Whole song

179 views 1 this week
no commentswrite comment
1 2 3 4 5
please rate
add to favorites
launch autoscroll
font size
0
reset
how to read this tab
guitar tuner
Autoscroll
slow
fast
+/-
esc
set tempo
stop
Help us to improve Ultimate-Guitar.com Take our survey!
×
Author
Difficulty
Tuning
novice
C G C F A D
Band: For Today
Album: Portraits
Song: Talmidim (The Servants)

Okay, I've seen some tabs that are half right and just plain wrong. I've played this at 
my youth group, at I'm quite sure it's right. If there's anything off just let me know! :)


Dropped C is the tuning, but you can do it in Dropped D as well.
Intro/Verse:
D|--------------------------------------------------------------------------|
A|--------------------------------------------------------------------------|
F|--------------------10-101010---------------------------10-10-1010--------|
C|--12-121210-101010108--8-8-8-10-1010101010-10-1010-10-1010-10-1010--------|
G|--8--8-8-8--8-8-8-8-8--8-8-8-8--8-8-8-8-8--8--8-8--8--8-8--8--8-8---------|
C|--8--8-8-8--8-8-8-8-8--8-8-8-8--8-8-8-8-7--7--7-7--7--7-7--7--7-7---------|

Intro/Verse(continued):
D|--------------------------------------------------------------------------|
A|--------------------------------------------------------------------------|
F|--------------------------------------------------------------------------|
C|--15-151515h17-17-1717-17-1717-1717171714-14-1414-14-1414-14-1414---------|
G|--12-121212----12-1212-12-1212-1212121210-10-1010-10-1010-10-1010---------|
C|--12-121212----12-1212-12-1212-1212121210-10-1010-10-1010-10-1010---------|

Chorus/Speech: Distortion on here.
D|---------------------------------------------|
A|---------------------------------------------|
F|---------------------------------------------|
C|--12\-------7\-------3\-------10\------------|
G|--8- }(x12)-8 }(x12)-3 }(x12)-10 }(x12)------|
C|--8-/-------7/-------3/-------10/------------|

Order:
Intro/Verse: (x4)
Chorus/Speech: (x1)
Intro/Verse: (x2)
Chorus/Speech: Play till music fades out.



Lyrics:
Verse:
Lord of Glory
Make us worthy
To posses Your name
        (x2)

Chorus(Singing):
And give us a new name
Call us Your people God
Give us a new name

Chorus 1(Speech) From Ezekiel 36:26-28:
"I will give you a new heart
and put a new spirit within you.
I will remove from you your heart of stone and give you a heart of flesh.
I will put my spirit in you and move you to follow My decrees
and be careful to keep My laws.
You will live in a land I gave to your forefathers.
You will be My people and I will be your God."

Chorus 2(Speech):
And through all of this
There is nothing
Absolutely nothing
No fear
No insecurity
No doubt
No hesitation that will ever ever stop us
Because we are the sons
Of the Living God
Because we are the children of The Almighty
Because we are residents in the kingdom of heaven
Because we are soldiers in an army of the immortal
And when we speak life
Life happens
When we speak healing
Healing happens
When we speak truth
Truth happens
And when we go and take what we have found
To a dead world
We'll see it come to life again
And when we take what we have found to a hopeless world
We'll see hope come back
We'll see the hearts of our world start beating again
We'll see the colour come back into peoples faces
And absolutely nothing will ever stop that
Mountains will move before us and oceans will part before us
And the dead will raise before us
And the world will know that our God is a God that lives
And our God is a God that heals
And our God is a God that loves unlike anything anyone has ever felt before
Because we are fearless
Because we are His hands
And we are His feet
Forever and ever



Well there it is!! Hope you guys enjoy it! God bless! :)
Suggest correction
Give kudos to tab author, rate the tab!
1 2 3 4 5
comments
print report bad tab
guest
You may want to rate the tab now too:
select rating
Wanna post a correction for this tab? Suggest correction