Oops, an error
Loading. Please wait.

The Breakers Commission Tab

version 2
version 2

Whole song

Interactive

4,560 views 1 this week
2 commentsread comments
1 2 3 4 5
excellent!
x 4
add to favorites
launch autoscroll
font size
0
reset
how to read this tab
guitar tuner
Autoscroll
slow
fast
+/-
esc
set tempo
stop
Help us to improve Ultimate-Guitar.com Take our survey!
×
----------------------------------------------------------------
                 The Breaker's Commission - For Today
----------------------------------------------------------------
Tabbed by: Nick (downfromthesky)
Email: Zekai_a7x@hotmail.com

Pretty easy song to play, good luck!

Tuning: Drop C

Clean guitar w/ chorus and 500ms delay
D|-----------------------------13--------------------|
A|--------------------------------------17-----------|
F|---10/12---12/14---14/17~-------14-------17----19~-|
C|-0-------0-------0---------------------------------|
G|--------------------------13~------15~------17~----|
C|---------------------------------------------------|

D|---------------------------------------------------------------|
A|-----------------------------------------11~-10~---------------|
F|---10/12---12/14---14/17-17-17h19p17-------------10~-9h10p9----|
C|-0-------0-------0-------------------19---------------------10-|
G|------------------------------------------8~--8~---------------|
C|-------------------------------------------------10~-----------|

"He is here, he was there, etc"

D|--8~--------------------------------------10~---|
A|--8~-----------6~-------------------------10~---|
F|-10~-----------5~----------10~------------12~---|
C|-10~-----------x-----------10~------------12~---|
G|--8~-----------5~-----------8~------------10~---|
C|----------------------------8~------------10~---|

Kick on the distortion

D|------------------------------------------------------------------|
A|------------------------------------------------------------------|
F|------------------------------------------------------------------|
C|-3-3-3-3-3-3-3-3-3-3-3-3-3-3-3-3--0-0-0-0-0-0-0-0-0-0-0-0-0-0-0-0-|
G|-3-3-3-3-3-3-3-3-3-3-3-3-3-3-3-3--0-0-0-0-0-0-0-0-0-0-0-0-0-0-0-0-|
C|-3-3-3-3-3-3-3-3-3-3-3-3-3-3-3-3--0-0-0-0-0-0-0-0-0-0-0-0-0-0-0-0-|

D|---------------------------------------------------------------------|
A|---------------------------------------------------------------------|
F|-3-3-3-3-3-3-3-3-3-3-3-3-3-3-3-3--5-5-5-5-5-5-5-5-5-5-5-5-5-5555-----|
C|-3-3-3-3-3-3-3-3-3-3-3-3-3-3-3-3--5-5-5-5-5-5-5-5-5-5-5-5-5-5555-5---|
G|-1-1-1-1-1-1-1-1-1-1-1-1-1-1-1-1--3-3-3-3-3-3-3-3-3-3-3-3-3-3333-5---|
C|-----------------------------------------------------------------5---|
pm                                                          * ****

Last time end on:

D|----|
A|----|
F|----|
C|-3~-|
G|-3~-|
C|-3~-|

There she is, enjoy!


/ slide up
~ vibrato
pm(*) palm mute
x muted string
Suggest correction
comments
print report bad tab
2 comments total.
0 reply
Alpha_Wolf 144 wrote on October 27 2010, 02:55 pm

I love chickens and For Today.

0 reply
AwokenDEMON 2,639 wrote on March 22 2012, 01:46 pm

This is a good tab, but for a different way of playing it, this is how I might do it. Also take notice to the extra "19" at the end of the first tab.


D|-----------------------------13--------------------|
A|-------------------10/13~-------------17-----------|
F|---10/12---12/14----------------14-------17----19~-|
C|-0-------0-------0-----------------------------19--|
G|--------------------------13~------15~------17~----|
C|---------------------------------------------------|

D|---------------------------------------------------------------|
A|-------------------10/13-13-13h15p13-----11~-10~---------------|
F|---10/12---12/14---------------------14~---------10~-9h10p9----|
C|-0-------0-------0------------------------------------------10-|
G|------------------------------------------8~--8~---------------|
C|-------------------------------------------------10~-----------|


And then I'm pretty sure that the chords should go more like this:

"He is here, he was there, etc"


D|----------------------------8~------------10~---|
A|--8~-----------8~-----------x--------------x~---|
F|-10~-----------5~----------10~------------12~---|
C|-10~-----------7~-----------8~------------10~---|
G|--8~-----------5~-----------8~------------10~---|
C|----------------------------8~------------10~---|

guest
You may want to rate the tab now too:
select rating
Please do not post tabs as comments. Select "correction" instead!