Oops, an error
Loading. Please wait.

Chalice Of Blood tab

version 2
version 2

Whole song

Interactive

1,534 views 3 this week
no commentswrite comment
1 2 3 4 5
2 more votes to show rating
add to favorites
×
Save as Personal and add changes to this tab that will be seen only by you. Learn more ›
×
You can save this tab as Personal to edit and correct it or add notes. All changes will be seen only by you. Learn more »
launch autoscroll
font size
0
reset
how to read this tab
guitar tuner
edit
Autoscroll
slow
fast
+/-
esc
set tempo
stop
CHALICE OF BLOOD
                            As recorded by Forbidden
                       (From the 1988 Album FORBIDDEN EVIL)
                           Copyright (c) 1988 Combat

                  (Also from the 1992 album THE BEST OF FORBIDDEN)
                           Copyright (c) 1992 Combat


Arranged by Forbidden
Transcribed by Steve Rubaszek - MetalThrashingMad
Email: Thrasher502@hotmail.com
Later updated by anon


Gtr I (E A D G B E) - 'Guitar 1'
Gtr II (E A D G B E) - 'Guitar 2'

  Q=130
 4/4
|---------------------------------|----------------------------------|
|---------------------------------|----------------------------------|
|---------------------------------|----------------------------------| Guitar 1
|---------------------------------|----------------------------------|
|---------------------------------|----------------------------------|
|-0-0-0-0-0-0-0-0-0-0-0-0-0-0-0-0-|-0-0-0-0-0-0-0-0-0-0-0-0-0-0-0-0--|
| . . . . . . . . . . . . . . . .   . . . . . . . . . . . . . . . .
|
|---------------------------------|----------------------------------|
|---------------------------------|----------------------------------|
|---------------------------------|----------------------------------| Guitar 2
|---------------------------------|----------------------------------|
|---------------------------------|----------------------------------|
|-0-0-0-0-0-0-0-0-0-x-x-x-x-x-x-x-|-x-x-x-x-x-x-x-x-x-x-x-x-x-x-x-x--|
  . . . . . . . . .


  Q=130
 4/4
  Gtr I
  PM--------------------------------------------------------|
|---------------------------------|-------------------------|
|---------------------------------|-------------------------|
|---------------------------------|-------------------------|
|---------------------------------|-----------------3-------|
|---------------------------------|-----------------1--2----|
|-0-0-0-0-0-0-0-0-0-0-0-0-0-0-0-0-|-x-x-x-x-x-x-x-x----0----|
|
|---------------------------------|-----------------------|
|---------------------------------|-----------------------|
|---------------------------------|-----------------------|
|---------------------------------|-----------------3-----|
|---------------------------------|-----------------1--2--|
|-x-x-x-x-x-x-x-x-x-x-x-x-x-x-x-x-|-x-x-x-x-x-x-x-x----0--|

Verse

|---------------------------------|---------------------------------|
|---------------------------------|---------------------------------|
|---------------------------------|---------------------3p0-----3p0-|
|-------------------------5p4-2p0-|-----------------4h5-----4h5-----|
|-5\4-----5\4-----2p0-------------|-5\4-----5\4---------------------|
|-3\2-2-2-3\2-2-2-----2p0---------|-3\2-2-2-3\2-2-2-----------------|
      . .     . .                       . .     . .


|---------------------------------|---------------------------------|
|---------------------------------|---------------------------------|
|---------------------------------|---------------------------------| x4
|-------------------------5p4-2p0-|-----------------8---------------|
|-5\4-----5\4-----2p0-------------|-5\4-----5\4-----6---8---7---5---|
|-3\2-2-2-3\2-2-2-----2p0---------|-3\2-2-2-3\2-2-2-----6---5---3---|
      . .     . .                       . .     . .


Bridge


|-------------------|
|-------------------|
|-------------------|
|---6-7-4-6---5-----|
|---4-5-2-4-7-3-5-5-|
|-----------5---3-3-|

|-------------------------------|-----------------------------|
|-------------------------------|-----------------------------|
|-------------------------------|-----------------------------|
|-------------------------------|---------------------------5-|
|-5-----------------------5---5-|-----------------------5---3-|
|-3-2-2-2-2-2-2-2-2-2-2-2-3-2-3-|-2-2-2-2-2-2-2-2-2-2-2-3-2---|
    . . . . . . . . . . .   .     . . . . . . . . . . .   .


|-----------------------------|-----------------------------|
|-----------------------------|-----------------------------|
|-----------------------------|-----------------------------|
|-----------------------------|---------------------------5-|
|-----------------------5---5-|-----------------------5---3-|
|-2-2-2-2-2-2-2-2-2-2-2-3-2-3-|-2-2-2-2-2-2-2-2-2-2-2-3-3---|
  . . . . . . . . . . .   .     . . . . . . . . . . .   .


|-------------------|---------------|
|-------------------|---------------|
|-------------------|---------5~--/\|
|---6-7-4-6---5\----|-4--6--7-------|
|---4-5-2-4-7-3\----|---------------|
|-----------5-------|---------------|

Chorus

    PM----------------------------|
                                                    3x
||----------------------------------|---------------||
||o---------------------------------|--------------o||
||----------------------------------|---------------||
||----------------------------------|----3--2-------||
||o---------------------------------|-5--1--0--2---o||
||--2-2-2-2-2-2-2-2-2-2-2-2-2-2-2-2-|-3--------0----||


  Gtr I
  PM---------------------------------|
|------------------------------------|
|------------------------------------|
|------------------------------------|
|------------------------------------|
|------------------------------------|
|-2-2-2-2-2-2-2-2-2--2-2-2-2-2-2-2---|
|
| Gtr II
|                 \2
| PM---------------------------------|
|------------------------------------|
|------------------------------------|
|------------------------------------|
|------------------------------------|
|------------------------------------|
|-2-2-2-2-2-2-2-2-2------------------|


|18-15----15-18-15----15-15----------15----------|-------------------------------|
|------17----------17-------17-14-17----17-14-17-|-17-14----14-17-14----14-------|
|------------------------------------------------|-------15----------15----16b18~|
|------------------------------------------------|-------------------------------|
|------------------------------------------------|-------------------------------|
|------------------------------------------------|-------------------------------|
|
|------------------------------------------------|-15----------15----------------|
|14----------14----------17-14----14-17-14----14-|----17-14-17----17-14-17-17b21~|
|---15-12-15----15-12-15-------15----------15----|-------------------------------|
|------------------------------------------------|-------------------------------|
|------------------------------------------------|-------------------------------|
|------------------------------------------------|-------------------------------|
|
|------------------------------------------------|-------------------------------|
|------------------------------------------------|-------------------------------|
|------------------------------------------------|-------------------------------|
|-5-----------------------8----------------------|11-----------------------5-----|
|-3-----------------------6----------------------|-9-----------------------5-----|
|-3-----------------------6----------------------|-9-----------------------3-----|


Bridge (2)

|-------------------------------|-----------------------------|
|-------------------------------|-----------------------------|
|-------------------------------|-----------------------------|
|-------------------------------|---------------------------5-|
|-------------------------5---5-|-----------------------5---3-|
|-2-2-2-2-2-2-2-2-2-2-2-2-3-2-3-|-2-2-2-2-2-2-2-2-2-2-2-3-2---|
  . . . . . . . . . . . .   .     . . . . . . . . . . .   .


|-----------------------------|------------------------------|
|-----------------------------|------------------------------|
|-----------------------------|-----------------6---7--------|
|-----------------------------|-----------------4---5--------|
|-----------------------5---5-|------------------------6---7-|
|-2-2-2-2-2-2-2-2-2-2-2-3-2-3-|-2-2-2-2-2-2-2-2--------4---5-|
  . . . . . . . . . . .   .     . . . . . . . .

Solo 1

    Q=140
|-----------------------|-----------------------|
|-----------------------|-----------------------|
|-----------------------|-----------------------|
|-------------------5-2-|-------------------3---|
|-4-----5---4-------3-0-|-4-----5---4-------1-2-|
|-2-2-2-3-2-2-2-2-2-----|-2-2-2-3-2-2-2-2-2---0-|
    . .   .   . . . 	    . .   .   . . .

|-----------------------|-----------------------|
|-----------------------|-----------------------|
|-----------------------|-----------------------|
|-------------------5-2-|-----------------------| x4
|-4-----5---4-------3-0-|-4-----5---4-----------|
|-2-2-2-3-2-2-2-2-2-----|-2-2-2-3-2-2-2-2-2-1-1-|
    . .   .   . . . 	    . .   .   . . .

Solo 2

Q=130

|---------------------------|
|---------------------------|
|---------------------------|
|-4---------------------5---|
|-2-2-2-2-2-2-2-2-2-2-2-3-0-|
|---------------------------|
 	. . . . . . . . . .


|-----------------------|---------------------------|
|-----------------------|---------------------------|
|-----------------------|---------------------------|
|-4-------------5-7-5---|-4---------------------5---|
|-2-2-2-2-2-2-2-3-5-3-0-|-2-2-2-2-2-2-2-2-2-2-2-3-0-|
|-----------------------|---------------------------|
    . . . . . .         	. . . . . . . . . .


 Ending 1              Ending 2              Ending 3
|------------------|  |------------------|	|------------------|------------------|
|------------------|  |------------------|	|------------------|------------------|
|-5-------2--------|  |-5-------7--------|	|-7-------6--------|-4----------------|
|-3-------0--------|  |-3-------5--------|	|-5-------4--------|-2----------------|
|------------------|  |------------------|	|------------------|------------------|
|------------------|  |------------------|	|------------------|------------------|

|--------------|
|--------------|
|--------------|
|-4--3--2------|
|-2--1--0--5-4-|
|----------3-2-|


Post-solo rhythm

   4/4
|------------------------------|-------------------------------|
|o-----------------------------|-------------------------------|
|------------------------------|-------------------------------|
|------------------------------|-------------------------------|
|o-4-------5\4---------------5/|-4-------5\4-----------------5-|
|--2-2-2-2-3\2-2-2-2-x-x-x-x-3/|-2-2-2-2-3\2-2-2-2-2-2-2-2-2-3-|
	 . . .     . . .			   . . .	 . . . . . . . .


 4/4
|-------------------------------|---------------------|
|-------------------------------|---------------------|
|-------------------------------|---------------------|
|-------------------------------|---------------------| x4
|-4-------5\4-----------------5/|-4-------4--8-7-5-7--|
|-2-2-2-2-3\2-2-2-2-x-x-x-x-x-3/|-2-2-2-2-2--6-5-3-5--|
    . . .     . . . 				. . .    ^^^^^^^
	                                         stocatto

|---------------------------------|---------------------------------|
|---------------------------------|-----------------3h4p3p0-3h4p3p0-|
|-2h4-4-4-5p4-4-4-2h4-4-4-0h2-2-2-|-2h4-4-4-5p4-4-4-----------------| x3
|---------------------------------|---------------------------------|
|---------------------------------|---------------------------------|
|---------------------------------|---------------------------------|
      . .     . .     . .     . .   	. . 	. .

|---------------------------------|---------------------------------|
|---------------------------------|---------------------------------|
|-2h4-4-4-5p4-4-4-2h4-4-4-0h2-2-2-|-2h4-4-4-5p4-4-4-----------------|
|---------------------------------|-----------------3---------------|
|---------------------------------|-----------------1-------2-------|
|---------------------------------|-------------------------0-------|
      . .     . .     . .     . .   	. . 	. .


Last section of last verse:

|-------------------------------|-----------------------|
|-------------------------------|-----------------------|
|-------------------------------|-----------------------| x4
|-----------------------5-4-2-0-|---------------7---6---|
|-4-------------2-0-------------|-4-------------5---4---|
|-2-2-2-3-2-0-0-----2-0---------|-2-2-2-3-2-0-0---------|

Outro:

|-----------|
|-----------|
|-----------|
|-7-8-4-2-4-|
|-7-8-4-2-4-|
|-5-6-2-0-2-|

            
            
Suggest correction
Creating personal tab
Creating personal tab
You can edit any tab online and save it as your Personal.

You can edit, replace or remove any tab part or add personal notes – all changes will be seen only by you.

Personal tabs can be accessed anytime from any device, even offline.
Learn more »
Give kudos to tab author, rate the tab!
1 2 3 4 5
comments
print report bad tab
guest
Wanna post a correction for this tab? Suggest correction